Guitar Tabs for Big Bad Solo

(/) Slide Up  (\) Slide Down  (h) Hammer On  (p) Pull Off  (b) Bend (r) Release (v) Vibrato (x) Muted

Tabs for Song : 

Song lyrics here
E|-----------3------3/10----10-12----------------10-10-13-13b15-13-13-13-13-13-13-13-13-19-19-19-19-19-19-19-15-15-15-15-15-15-15-15-------------------------------------------------31
B|--3--3--5-----------------------10-13----13-13-------------------------------------------------------------------------------------17-17-17-17-17-17-17-15-15-15-15-15-15-15-15b17-
G|-----------------------------------------------------------------------------------------------------------------------------------------------------------------------------------
D|-----------------------------------------------------------------------------------------------------------------------------------------------------------------------------------
A|-----------------------------------------------------------------------------------------------------------------------------------------------------------------------------------
E|-----------------------------------------------------------------------------------------------------------------------------------------------------------------------------------
Song lyrics here
E|-----------------------------------------------------------------------------------------
B|-----17r15-15-13-------------------------------------------------------------------------
G|-----------------14-12-------------------------12-12b14-14-14-14-14r12-12-12-12-12-12/0--
D|-----------------------15-12-------------12-14-------------------------------------------
A|-----------------------------15-12-12-15-------------------------------------------------
E|-----------------------------------------------------------------------------------------

Paste any tab in acousterr's tab maker and we'll play it !!!
Now supports capo and sound effects for vibrato/pull-off/hammer/bends/mutes etc !!! Checkout help section
tabs and chords, guitar tabs, music transcription, music technology, deep learning, music information retrieval, transcribe into tabs & chords, chordify, music renditions, songsterr, reverbnation, tabulature, bollywood chords, ultimate guitar, yousician, guitar lessons, acoustic guitar, electric guitar, guitar tuner, 911 tabs