Guitar Tabs for Bad Romance

(/) Slide Up  (\) Slide Down  (h) Hammer On  (p) Pull Off  (b) Bend (r) Release (v) Vibrato (x) Muted

Tabs for Song : 
BPM : 200

Song lyrics here
E|-----------------------------------------------------------------------
B|-----------------------------------------------------------------------
G|--5--7--9---5\10-------9--10-9--7-----4--5--7-----9-----9--9--9--7--5--
D|-----------------------------------------------------------------------
A|-----------------------------------------------------------------------
E|-----------------------------------------------------------------------


Song lyrics here 
E|-----------------------------------------------------------------------=]
B|-----------------------------------------------------------------------
G|--5--7--9---5\10-------9--10-9--7-----4--5--7-----9-----9--9--9--7--5--
D|-----------------------------------------------------------------------
A|-----------------------------------------------------------------------
E|-----------------------------------------------------------------------

E|--------------------------------------------------------------------------------
B|--------------------------------------------------------------------------------
G|--------9---9b11-9-----------9---9b11-9-----------9---9b11-9-----5--5-----5--5--
D|--7--7-----------------7--7-----------------7--7-----------------------7--------
A|--------------------------------------------------------------------------------
E|--------------------------------------------------------------------------------

E|--------------------------------------------------------------------------------
B|--------------------------------------------------------------------------------
G|--------9--9--11-9-----------9--9--11-9-----------9--9--11-9-----5--5-----5--5--
D|--7--7-----------------7--7-----------------7--7-----------------------7--------
A|--------------------------------------------------------------------------------
E|--------------------------------------------------------------------------------

E|--------------------------------------------
B|--------------------------------------------
G|--5--5-----5--5--------5--5-----5-----------
D|--------7-----------7--------7-----5--------
A|--------------------------------------------
E|--------------------------------------------

E|-----------------------------------------------------------------------------------
B|-----------------------------------------------------------------------------------
G|--5--5-----5--5-----5--5---------------------------------9b11-9--7-----------------
D|--------7--------7--------7--10-5--------5--7--7-----7--------------------5--7--7--
A|--------------------------------------7--------------------------------7-----------
E|-----------------------------------------------------------------------------------

E|-----------------------------------------------------------------------------15-------
B|--------------------------------------------------10-------------------15b17----15b17-
G|--------------------------9-----------------------------------------------------------
D|--7-----------------------------------------------------------------------------------
A|--------------------------------------------------------------------------------------
E|--------------------------------------------------------------------------------------

E|--17-17-17-17----15-15-15-15----------13-12----12-12-12-15-10-------------------
B|-----------------------------15----15-------------------------13----13-15-17-13-
G|--------------------------------------------------------------------------------
D|--------------------------------------------------------------------------------
A|--------------------------------------------------------------------------------
E|--------------------------------------------------------------------------------

E|--17-17-17-17----15-15-15-15----------13-12----12-12-12-15-10-------
B|-----------------------------15----15-------------------------13----
G|--------------------------------------------------------------------
D|--------------------------------------------------------------------
A|--------------------------------------------------------------------
E|--------------------------------------------------------------------

E|-----------------------------------------------------v---------------
B|--13-15-17-13-18----17-18-17-15----12-13-15----17----17-17-17-15-13-
G|--------------------------------------------------------------------
D|--------------------------------------------------------------------
A|--------------------------------------------------------------------
E|--------------------------------------------------------------------

E|--
B|--
G|--
D|--
A|--
E|--

Use manual mode to free up cursor. Paste any tab in acousterr tab maker and we'll play it !!!
tabs and chords, guitar tabs, music transcription, music technology, deep learning, music information retrieval, transcribe into tabs & chords, chordify, music renditions, songsterr, reverbnation, tabulature, bollywood chords, ultimate guitar, yousician, guitar lessons, acoustic guitar, electric guitar, guitar tuner, 911 tabs