Guitar Tabs for Bad Guy

(/) Slide Up  (\) Slide Down  (h) Hammer On  (p) Pull Off  (b) Bend (r) Release (v) Vibrato (x) Muted

Tabs for Song : 
BPM : 250

E|-----------------------------------------------------------------------------------------------
B|-----------------------------------------------------------------------------------------------
G|-----------------------------------------------------------------------------------------------
D|-----------------------------------------------------------------------------------------------
A|-----------------------------------------------------------------------------------------------
D|--5--------5--8--5-----5-----5-----5--8--5--3-----5--------5--8--5-----5-----5-----5--8--5--3--

E|-----------------------------------------------------------------------------------------
B|-----------------------------------------------------------------------------------------
G|-----------------------------------------------------------------------------------------
D|-----------------------------------------------5-----------------------------------------
A|-----3--------3--6--3-----3-----3-----3--6--3--------5--------5--9--5--------------------
D|--------------------------------------------------------------------------0-----0-----0--



E|-----------------------------------------------------------------------------------------------------------
B|-----------------------------------------------------------------------------------------------------------
G|--------------7--------6--7--6--------7--------6--7--6--------7--------6--7--6--------7--------6--7--6-----
D|-----------5--------5-----------8--5--------5-----------8--5--------5-----------8--5--------5-----------8--
A|-----------------------------------------------------------------------------------------------------------
D|-----------------------------------------------------------------------------------------------------------

E|-----------------------------------------------------------------------------
B|-----8--------7--8--7--------8--------7--8--7--------10-------7--------------
G|--5--------5-----------8--5--------5-----------8--7--------7-----7-----5--5--
D|-----------------------------------------------------------------------------
A|-----------------------------------------------------------------------------
D|-----------------------------------------------------------------------------











tabs and chords, guitar tabs, music transcription, music technology, deep learning, music information retrieval, transcribe into tabs & chords, chordify, music renditions, songsterr, reverbnation, tabulature, bollywood chords, ultimate guitar, yousician, guitar lessons, acoustic guitar, electric guitar, guitar tuner, 911 tabs