Guitar Tabs for Bekaraar Karke Humein - Waheeda Rehman

(/) Slide Up  (\) Slide Down  (h) Hammer On  (p) Pull Off  (b) Bend (r) Release (v) Vibrato

Tabs for Song : Bekaraar Karke Humein

Beqaraar karke hume yuun na jaaiye
E|--0-----0--0--0--2--3--5--7--8--7--5--3-----
B|-----0--------------------------------------
G|--------------------------------------------
D|--------------------------------------------
A|--------------------------------------------
E|--------------------------------------------

aapako humari kasam laut  aaiye 
E|--3--3--5--7-----------5--------0--0--0-----
B|--------------7--7--8-----3--3--------------
G|--------------------------------------------
D|--------------------------------------------
A|--------------------------------------------
E|--------------------------------------------

Beqaraar karke hume yuun na jaaiye
E|--0-----0--0--0--2--3--5--7--8--7--5--3-----
B|-----0--------------------------------------
G|--------------------------------------------
D|--------------------------------------------
A|--------------------------------------------
E|--------------------------------------------

aapako humari kasam laut  aaiye 
E|--3--3--5--7-----------5--------0--0--0-----
B|--------------7--7--8-----3--3--------------
G|--------------------------------------------
D|--------------------------------------------
A|--------------------------------------------
E|--------------------------------------------

dekhiye wo kaali kaali badaliyan
E|--4--4--4--4--5--4--2--0--2--4--5-----
B|--------------------------------------
G|--------------------------------------
D|--------------------------------------
A|--------------------------------------
E|--------------------------------------

zulf ki ghata chura na le kahin
E|--2--2--5--5--7--7--7--8--7--10-8--7-----
B|-----------------------------------------
G|-----------------------------------------
D|-----------------------------------------
A|-----------------------------------------
E|-----------------------------------------

chori chori aake shokh bijaliyan
E|--12-12-10-7--12-12-10-7--5--5--7-----
B|--------------------------------------
G|--------------------------------------
D|--------------------------------------
A|--------------------------------------
E|--------------------------------------

aapki adaa chura na le kahin
E|--7--8--10-8--7--5--4--2--4--5--4--5-----
B|-----------------------------------------
G|-----------------------------------------
D|-----------------------------------------
A|-----------------------------------------
E|-----------------------------------------

yun qadam akele na aage badhaaiye
E|--7--7--7--8--10-12-12-7--7--7--5--7--5--3-----
B|-----------------------------------------------
G|-----------------------------------------------
D|-----------------------------------------------
A|-----------------------------------------------
E|-----------------------------------------------

aapako humari kasam laut  aaiye 
E|--3--3--5--7-----------5--------0--0--0-----
B|--------------7--7--8-----3--3--------------
G|--------------------------------------------
D|--------------------------------------------
A|--------------------------------------------
E|--------------------------------------------

Add more lines by placing cursor below and adding notes
tabs and chords, guitar tabs, music contests, music covers, songsterr, reverbnation, renditions, tabulature, bollywood chords, ultimate guitar, yousician, guitar lessons, torrins, fender, gibson, acoustic guitar, electric guitar, youtube covers, gootar, guitar tuner, A-Z tabs, 911 tabs