Bass Tabs for Barão Vermelho - Bete Balanço

Barão Vermelho - Bete Balanço 

Intro, Verse & Guitar Solo
G|-----9--------------9-----------------------9--------------9-----------------
D|-----------------------------------------------------------------------------
A|--7-----4--5-----7--------4--5--4--5-----7-----4--5-----7--------4--5--4--5--
E|-----------------------------------------------------------------------------
    T  P           T  P                    T  P           T  P
G|--------------------------------------------9--------------9-----------------
D|-----7--------------7--------------------------------------------------------
A|-----------------------------------------7-----4--5-----7--------4--5--4--5--
E|--5-----7--8-----5--------7--8--7--8-----------------------------------------
    T  P           T  P                    T  P           T  P
    
Chorus
G|-----------------------------------------------------------------------------
D|-----------------------------------------------------------------------------
A|--------------------------------5--7-----------------------------------------
E|--7--------7--------8-----5--8--------7--------7--------8--8--8--7--3---3/5--

Tension Pos-Solo
G|-----------------------------------------------------------------
D|-----------------------------------------------------------------
A|-----------------10----10-------------------7--7-----------------
E|--7-----7-----7--------------5--7-----7-----------10-8-----8--10-

G|-----------------------------------------------------------
D|-----------------------------------------------------------
A|-----------------10----10-------------------------10-10h12-
E|--7-----7-----7--------------5--7-----7-----8~~~~----------

Intro Variation After Tension
G|-----9--------------9-----------------------9--------------9-----------------
D|-----------------------------------------------------------------------------
A|--7-----4--5-----7--------4--5--4--5-----7-----4--5-----7--------4--5--4--5--
E|-----------------------------------------------------------------------------
    T  P           T  P                    T  P           T  P

Last Note -> E|--0--
tabs and chords, guitar tabs, music contests, music covers, songsterr, reverbnation, renditions, tabulature, bollywood chords, ultimate guitar, yousician, guitar lessons, torrins, fender, gibson, acoustic guitar, electric guitar, youtube covers, gootar, guitar tuner, A-Z tabs, 911 tabs