Bass Tabs for Barão Vermelho - Pense E Dance

BASS TAB
Barão Vermelho - Pense e Dance
G|--------------------------------------------------------
D|--------------------------------------------------------
A|-----7--7--------5--4--------7--7-----5-----------------
E|--0--------7--0-----------0--------7-----2--3--2--3--0--

Chorus
G|-----------------------------------------------------------
D|-----------------------------------------------------------
A|--------------------------5--------------------------------
E|--5--3--5--5--3--5--3--5--------5--3--5--5--3--5--3--0--3--
tabs and chords, guitar tabs, music transcription, music technology, deep learning, music information retrieval, transcribe into tabs & chords, chordify, music renditions, songsterr, reverbnation, tabulature, bollywood chords, ultimate guitar, yousician, guitar lessons, acoustic guitar, electric guitar, guitar tuner, 911 tabs