Guitar Tabs for Bandeya - Arijit Singh - Dil Juunglee

Chal, chal ve tu bandeya uss galiye
E|-----------------------------------------------------------
B|--------------------------------------------------5--3-----
G|---2/4--4-----2--4--4--4--4--4--4-----2--4--4--------------
D|-----------------------------------------------------------
A|-----------------------------------------------------------
E|-----------------------------------------------------------

Jahaan koi kisi ko na jaane
E|-----------------------------------------------
B|--3--3-----------------------------------------
G|--------2-----2--2---2h4-----------------2-----
D|-----------------------------5--4--5-----------
A|-----------------------------------------------
E|-----------------------------------------------


Kya rehna wahaan par sun bandeya
E|-----------------------------------------------------12----10----
B|--10/12-12----10-12-12-12-12-12-12----10-12----12----------------
G|-----------------------------------------------------------------
D|-----------------------------------------------------------------
A|-----------------------------------------------------------------
E|-----------------------------------------------------------------


Jahaan apne hi na pehchaane
E|--10-10----------------------------------------------------
B|-----------10----10-10----10h12----------------------10----
G|-----------------------------------12-11----11/12----------
D|-----------------------------------------------------------
A|-----------------------------------------------------------
E|-----------------------------------------------------------

Reh gaye hain jo tujhme
E|--------------------------------------------------------------------
B|---5/7--7--7--7--8---7h-8p7--3--------------------3---1h-3p1--------
G|------------------------------------2/4--4--2--2-----------------4--
D|--------------------------------------------------------------------
A|--------------------------------------------------------------------
E|--------------------------------------------------------------------

Meri aankhon mein aake
Mujhe thoda rula de…
E|--------------------------------------------------------------------------------------------
B|---5/7--7--7--7--8---7h-8p7--3--------------------3---1h-3p1--------------------------------
G|------------------------------------2/4--4--2--2--------------4--4--4---4h-5p4---2h-4p2--4--
D|--------------------------------------------------------------------------------------------
A|--------------------------------------------------------------------------------------------
E|--------------------------------------------------------------------------------------------


Chal, chal ve tu bandeya uss galiye
E|--------------------------------------------------------------
B|-----------------------------------------------------5--3-----
G|------2/4--4-----2--4--4--4--4--4--4-----2--4--4--------------
D|--------------------------------------------------------------
A|--------------------------------------------------------------
E|--------------------------------------------------------------

Jahaan koi kisi ko na jaane
E|-----------------------------------------------
B|--3--3-----------------------------------------
G|--------2-----2--2---2h4-----------------2-----
D|-----------------------------5--4--5-----------
A|-----------------------------------------------
E|-----------------------------------------------

Khwab jo huey hain khandar
Khwab hi nahi thhe
E|-----------------------------------------------
B|-----------3--------------------------3--------
G|--2--4--5-----5--4--4--2-----2--4--5-----5--4--
D|-----------------------------------------------
A|-----------------------------------------------
E|-----------------------------------------------


Ik neend thi neem si… haaye
E|-----------3--------------------------------------
B|-----------------5--3-----5--3--3-----------------
G|-----4--5--------------------------------4--------
D|--------------------------------------------------
A|--------------------------------------------------
E|--------------------------------------------------

Kho diya hai tune jisko
Tera hi nahi tha
E|-----------------------------------------------
B|-----------3--------------------------3--------
G|--2--4--5-----5--4--4--2-----2--4--5-----5--4--
D|-----------------------------------------------
A|-----------------------------------------------
E|-----------------------------------------------

Ik haar thi jeet si…
E|--------3--------------------------------
B|--------------5--3-----5--3--3------3/7--
G|--4--5-----------------------------------
D|-----------------------------------------
A|-----------------------------------------
E|-----------------------------------------



Kitna rulayega ye toh bata
Rabba ve tujhe hai tere rab da waasta
E|--------------------------------------------------------------------------------------
B|-----7--7--5--7--7--7--7--7--8---8\3-----3---5/8--8--7--5--3-----------5--3-----------
G|--------------------------------------------------------------5--4--5--------5--4-----
D|--------------------------------------------------------------------------------------
A|--------------------------------------------------------------------------------------
E|--------------------------------------------------------------------------------------
tabs and chords, guitar tabs, music contests, music covers, songsterr, reverbnation, renditions, tabulature, bollywood chords, ultimate guitar, yousician, guitar lessons, torrins, fender, gibson, acoustic guitar, electric guitar, youtube covers, gootar, guitar tuner, A-Z tabs, 911 tabs