Banana Co. - Radiohead - Guitar Tabs

Guitar 1 Thom
    
    Em                                                                                                                                                                                                                                                                                                                                                                                                                                                                                                                                                                                             Em                                                                                                                                                                                                                                                                                                                                                                                                                                                                                                                                                                                             
E|--0-----0--0-----0--0--0--0-|3-----3--3-----3--3--3--3-|
B|--0-----0--0-----0--0--0--0-|5-----5--5-----5--5--5--5-|
G|--0-----0--0-----0--0--0--0-|5-----5--5-----5--5--5--5-|
D|--2-----2--2-----2--2--2--2-|5-----5--5-----5--5--5--5-|
A|--2-----2--2-----2--2--2--2-|3-----3--3-----3--3--3--3-|
E|--0-----0--0-----0--0--0--0-|--------------------------|

    
    G                                                                                                                                                                                    F#                                                                                                                                                                                                                                                                                                                                                                                                         G                                                                                                                                                                                    F#                                                                                                                                                                                                                                                                                                                                                                                                         
E|--3-----3--2-----2--2--2--2-|3-----3--2-----2--2--2--2-|
B|--3-----3--2-----2--2--2--2-|3-----3--2-----2--2--2--2-|
G|--4-----4--3-----3--3--3--3-|4-----4--3-----3--3--3--3-|
D|--5-----5--4-----4--4--4--4-|5-----5--4-----4--4--4--4-|
A|--5-----5--4-----4--4--4--4-|5-----5--4-----4--4--4--4-|
E|--3-----3--2-----2--2--2--2-|3-----3--2-----2--2--2--2-|

    
    Em                                                                                                                                                                                                                                                                                                                                                                                                                                                                                                                                                                                             Em                                                                                                                                                                                                                                                                                                                                                                                                                                                                                                                                                                                             
E|--0-----0--0-----0--0--0--0-|3-----3--3-----3--3--3--3-|
B|--0-----0--0-----0--0--0--0-|5-----5--5-----5--5--5--5-|
G|--0-----0--0-----0--0--0--0-|5-----5--5-----5--5--5--5-|
D|--2-----2--2-----2--2--2--2-|5-----5--5-----5--5--5--5-|
A|--2-----2--2-----2--2--2--2-|3-----3--3-----3--3--3--3-|
E|--0-----0--0-----0--0--0--0-|--------------------------|

    
    G                                                                                                                                                                                    F#                                                                                                                                                                                                                                                                                                                                                                                                         G                                                                                                                                                                                    F#                                                                                                                                                                                                                                                                                                                                                                                                         
E|--3-----3--2-----2--2--2--2-|3-----3--2-----2--2--2--2-|
B|--3-----3--2-----2--2--2--2-|3-----3--2-----2--2--2--2-|
G|--4-----4--3-----3--3--3--3-|4-----4--3-----3--3--3--3-|
D|--5-----5--4-----4--4--4--4-|5-----5--4-----4--4--4--4-|
A|--5-----5--4-----4--4--4--4-|5-----5--4-----4--4--4--4-|
E|--3-----3--2-----2--2--2--2-|3-----3--2-----2--2--2--2-|

    
    Cm                                                                                                                                                                                                                                                                                                                                                                                                                                                                                                                                                                                             Cm                                                                                                                                                                                                                                                                                                                                                                                                                                                                                                                                                                                             
E|--3-----3--3--3--3--3--3-----3--3--3-|3-----3--3--3--3--3--3-----3--3--3-|
B|--4-----4--4--4--4--4--4-----4--4--4-|3-----3--3--3--3--3--3-----3--3--3-|
G|--5-----5--5--5--5--5--5-----5--5--5-|4-----4--4--4--4--4--4-----4--4--4-|
D|--5-----5--5--5--5--5--5-----5--5--5-|5-----5--5--5--5--5--5-----5--5--5-|
A|--3-----3--3--3--3--3--3-----3--3--3-|5-----5--5--5--5--5--5-----5--5--5-|
E|-------------------------------------|3-----3--3--3--3--3--3-----3--3--3-|

    
    Cm                                                                                                                                                                                                                                                                                                                                                                                                                                                                                                                                                                                             Cm                                                                                                                                                                                                                                                                                                                                                                                                                                                                                                                                                                                             
E|--3-----3--3--3--3--3--3-----3--3--3-|-----------------------|
B|--4-----4--4--4--4--4--4-----4--4--4-|-----------------------|
G|--5-----5--5--5--5--5--5-----5--5--5-|-----------------------|
D|--5-----5--5--5--5--5--5-----5--5--5-|5--5--5---5/5--5--5--5-|
A|--3-----3--3--3--3--3--3-----3--3--3-|7--7--7---7/6--6--6--6-|
E|-------------------------------------|-----------------------|

    
                                                                                                                                                                                                                                                                                                                                                                                                                                                                                                                                                                                                                                                                                                                                                                                                                                                                                                                                                                                                                                                                                                                                                                                              
E|-------------------------|3-----3--3--3--3-----3--3--3--3--3-----3-|
B|-------------------------|4-----4--4--4--4-----4--4--4--4--4-----4-|
G|-------------------------|5-----5--5--5--5-----5--5--5--5--5-----5-|
D|--5--5---5/2-------------|5-----5--5--5--5-----5--5--5--5--5-----5-|
A|--5--5---5/4-------------|3-----3--3--3--3-----3--3--3--3--3-----3-|
E|-------------------------|-----------------------------------------|

    
                                                                                                                                                                                                                                                                                                                                                                                                                                                                                                                                                                                                                                                                                                                                                                                                                                                                                                                                                                                                                                                                                                                                                                                              
E|--3--3--3--3--3--3--3--3--3-|0-----0--0-----0--0--0--0-|
B|--4--4--4--4--4--4--4--4--4-|0-----0--0-----0--0--0--0-|
G|--5--5--5--5--5--5--5--5--5-|0-----0--0-----0--0--0--0-|
D|--5--5--5--5--5--5--5--5--5-|2-----2--2-----2--2--2--2-|
A|--3--3--3--3--3--3--3--3--3-|2-----2--2-----2--2--2--2-|
E|----------------------------|0-----0--0-----0--0--0--0-|

    
    C                                                                                                                                                                                                                                                                                                                                                                                                                                                                                                                                                                                             C                                                                                                                                                                                                                                                                                                                                                                                                                                                                                                                                                                                             
E|--3-----3--3-----3--3--3--3-|3-----3--2-----2--2--2--2-|
B|--5-----5--5-----5--5--5--5-|3-----3--2-----2--2--2--2-|
G|--5-----5--5-----5--5--5--5-|4-----4--3-----3--3--3--3-|
D|--5-----5--5-----5--5--5--5-|5-----5--4-----4--4--4--4-|
A|--3-----3--3-----3--3--3--3-|5-----5--4-----4--4--4--4-|
E|----------------------------|3-----3--2-----2--2--2--2-|

    
    G                                                                                                                                                                                    F#                                                                                                                                                                                                                                                                                                                                                                                                         G                                                                                                                                                                                    F#                                                                                                                                                                                                                                                                                                                                                                                                         
E|--3-----3--2-----2--2--2--2-|0-----0--0-----0--0--0--0-|
B|--3-----3--2-----2--2--2--2-|0-----0--0-----0--0--0--0-|
G|--4-----4--3-----3--3--3--3-|0-----0--0-----0--0--0--0-|
D|--5-----5--4-----4--4--4--4-|2-----2--2-----2--2--2--2-|
A|--5-----5--4-----4--4--4--4-|2-----2--2-----2--2--2--2-|
E|--3-----3--2-----2--2--2--2-|0-----0--0-----0--0--0--0-|

    
    C                                                                                                                                                                                                                                                                                                                                                                                                                                                                                                                                                                                             C                                                                                                                                                                                                                                                                                                                                                                                                                                                                                                                                                                                             
E|--3-----3--3-----3--3--3--3-|3-----3--2-----2--2--2--2-|
B|--5-----5--5-----5--5--5--5-|3-----3--2-----2--2--2--2-|
G|--5-----5--5-----5--5--5--5-|4-----4--3-----3--3--3--3-|
D|--5-----5--5-----5--5--5--5-|5-----5--4-----4--4--4--4-|
A|--3-----3--3-----3--3--3--3-|5-----5--4-----4--4--4--4-|
E|----------------------------|3-----3--2-----2--2--2--2-|

    
    G                                                                                                                                                                                    F#                                                                                                                                                                                                                                                                                                                                                                                                         G                                                                                                                                                                                    F#                                                                                                                                                                                                                                                                                                                                                                                                         
E|--3-----3--2-----2--2--2--2-|3-----3--3--3--3--3--3-----3--3--3-|
B|--3-----3--2-----2--2--2--2-|4-----4--4--4--4--4--4-----4--4--4-|
G|--4-----4--3-----3--3--3--3-|5-----5--5--5--5--5--5-----5--5--5-|
D|--5-----5--4-----4--4--4--4-|5-----5--5--5--5--5--5-----5--5--5-|
A|--5-----5--4-----4--4--4--4-|3-----3--3--3--3--3--3-----3--3--3-|
E|--3-----3--2-----2--2--2--2-|-----------------------------------|

    
    G                                                                                                                                                                                                                                                                                                                                                                                                                                                                                                                                                                                             G                                                                                                                                                                                                                                                                                                                                                                                                                                                                                                                                                                                             
E|--3-----3--3--3--3--3--3-----3--3--3-|3-----3--3--3--3--3--3-----3--3--3-|
B|--3-----3--3--3--3--3--3-----3--3--3-|4-----4--4--4--4--4--4-----4--4--4-|
G|--4-----4--4--4--4--4--4-----4--4--4-|5-----5--5--5--5--5--5-----5--5--5-|
D|--5-----5--5--5--5--5--5-----5--5--5-|5-----5--5--5--5--5--5-----5--5--5-|
A|--5-----5--5--5--5--5--5-----5--5--5-|3-----3--3--3--3--3--3-----3--3--3-|
E|--3-----3--3--3--3--3--3-----3--3--3-|-----------------------------------|

    
                                                                                                                                                                                                                                                                                                                                                                                                                                                                                                                                                                                                                                                                                                                                                                                                                                                                                                                                                                                                                                                                                                                                                                                              
E|-------------------------|-----------------------|
B|-------------------------|-----------------------|
G|-------------------------|-----------------------|
D|--5--5--5---5/5--5--5---5/5--5---5/2-------------|
A|--7--7--7---7/6--6--6---6/5--5---5/4-------------|
E|-------------------------|-----------------------|

    
    Cm                                                                                                                                                                                                                                                                                                                                                                                                                                                                                                                                                                                             Cm                                                                                                                                                                                                                                                                                                                                                                                                                                                                                                                                                                                             
E|--3-----3--3--3--3-----3--3--3--3--3-----3-|3--3--3--3--3--3--3--3--3-|
B|--4-----4--4--4--4-----4--4--4--4--4-----4-|4--4--4--4--4--4--4--4--4-|
G|--5-----5--5--5--5-----5--5--5--5--5-----5-|5--5--5--5--5--5--5--5--5-|
D|--5-----5--5--5--5-----5--5--5--5--5-----5-|5--5--5--5--5--5--5--5--5-|
A|--3-----3--3--3--3-----3--3--3--3--3-----3-|3--3--3--3--3--3--3--3--3-|
E|-------------------------------------------|--------------------------|

    
                                                                                                                                                                                                                                                                                                                                                                                                                                                                                                                                                                                                                                                                                                                                                                                                                                                                                                                                                                                                                                                                                                                                                                                              
E|--0-----0--0-----3--3--3-|3-----3--3--2--2--2--2--2--2-|
B|--0-----0--0-----5--5--5-|3-----3--3--2--2--2--2--2--2-|
G|--0-----0--0-----5--5--5-|4-----4--4--3--3--3--3--3--3-|
D|--2-----2--2-----5--5--5-|5-----5--5--4--4--4--4--4--4-|
A|--2-----2--2-----3--3--3-|5-----5--5--4--4--4--4--4--4-|
E|--0-----0--0-------------|3-----3--3--2--2--2--2--2--2-|

    
                                                                                                                                                                                                                                                                                                                                                                                                                                                                                                                                                                                                                                                                                                                                                                                                                                                                                                                                                                                                                                                                                                                                                                                              
E|--3-----3--3--2--2--2--2--2--2-|3--3--0--0--0--0--0--0-----0-----0-|
B|--3-----3--3--2--2--2--2--2--2-|3--3--0--0--0--0--0--0-----0-----0-|
G|--4-----4--4--3--3--3--3--3--3-|4--4--0--0--0--0--0--0-----0-----0-|
D|--5-----5--5--4--4--4--4--4--4-|5--5--2--2--2--2--2--2-----2-----2-|
A|--5-----5--5--4--4--4--4--4--4-|5--5--2--2--2--2--2--2-----2-----2-|
E|--3-----3--3--2--2--2--2--2--2-|3--3--0--0--0--0--0--0-----0-----0-|

    
                                                                                                                                                                                                                                                                                                                                                                                                                                                                                                                                                                                                                                                                                                                                                                                                                                                                                                                                                                                                                                                                                                                                                                                              
E|--3--3--3--3--3--3--3--3-----3-----3-|3-----3--3--2--2--2--2--2--2-|
B|--5--5--5--5--5--5--5--5-----5-----5-|3-----3--3--2--2--2--2--2--2-|
G|--5--5--5--5--5--5--5--5-----5-----5-|4-----4--4--3--3--3--3--3--3-|
D|--5--5--5--5--5--5--5--5-----5-----5-|5-----5--5--4--4--4--4--4--4-|
A|--3--3--3--3--3--3--3--3-----3-----3-|5-----5--5--4--4--4--4--4--4-|
E|-------------------------------------|3-----3--3--2--2--2--2--2--2-|

    
                                                                                                                                                                                                                                                                                                                                                                                                                                                                                                                                                                                                                                                                                                                                                                                                                                                                                                                                                                                                                                                                                                                                                                                              
E|--3-----3--3--2--2--2--2--2--2-|3-----3--3--3--3--3--3-----3--3--3-|
B|--3-----3--3--2--2--2--2--2--2-|4-----4--4--4--4--4--4-----4--4--4-|
G|--4-----4--4--3--3--3--3--3--3-|5-----5--5--5--5--5--5-----5--5--5-|
D|--5-----5--5--4--4--4--4--4--4-|5-----5--5--5--5--5--5-----5--5--5-|
A|--5-----5--5--4--4--4--4--4--4-|3-----3--3--3--3--3--3-----3--3--3-|
E|--3-----3--3--2--2--2--2--2--2-|-----------------------------------|

    
    G                                                                                                                                                                                                                                                                                                                                                                                                                                                                                                                                                                                             G                                                                                                                                                                                                                                                                                                                                                                                                                                                                                                                                                                                             
E|--3-----3--3--3--3--3--3-----3--3--3-|3-----3--3--3--3--3--3-----3--3--3-|
B|--3-----3--3--3--3--3--3-----3--3--3-|4-----4--4--4--4--4--4-----4--4--4-|
G|--4-----4--4--4--4--4--4-----4--4--4-|5-----5--5--5--5--5--5-----5--5--5-|
D|--5-----5--5--5--5--5--5-----5--5--5-|5-----5--5--5--5--5--5-----5--5--5-|
A|--5-----5--5--5--5--5--5-----5--5--5-|3-----3--3--3--3--3--3-----3--3--3-|
E|--3-----3--3--3--3--3--3-----3--3--3-|-----------------------------------|

    
                                                                                                                                                                                                                                                                                                                                                                                                                                                                                                                                                                                                                                                                                                                                                                                                                                                                                                                                                                                                                                                                                                                                                                                              
E|-------------------------|-----------------------|
B|-------------------------|-----------------------|
G|-------------------------|-----------------------|
D|--5--5--5---5/5--5--5---5/5--5---5/2-------------|
A|--7--7--7---7/6--6--6---6/5--5---5/4-------------|
E|-------------------------|-----------------------|

    
    Cm                                                                                                                                                                                                                                                                                                                                                                                                                                                                                                                                                                                             Cm                                                                                                                                                                                                                                                                                                                                                                                                                                                                                                                                                                                             
E|--3-----3--3--3--3-----3--3--3--3--3-----3-|3--3--3--3--0----------|
B|--4-----4--4--4--4-----4--4--4--4--4-----4-|4--4--4--4--0----------|
G|--5-----5--5--5--5-----5--5--5--5--5-----5-|5--5--5--5--0----------|
D|--5-----5--5--5--5-----5--5--5--5--5-----5-|5--5--5--5--2----------|
A|--3-----3--3--3--3-----3--3--3--3--3-----3-|3--3--3--3--2----------|
E|-------------------------------------------|------------0----------|

About Pop Is Dead : "Pop Is Dead" was released as a non-album single in 1993 . It was later included on the 2009 Collector's Edition re-issue . "Pop Is Dead" reached 42 on the UK Singles Chart in May 1993 . It was included "Pop Is Dead" is driven by a chromatic riff played by guitarist Jonny Greenwood . The lyrics criticise the media and music industry in general . It was released in 1993. The track was release in 1993. It is related to the album(s) - Pablo Honey. The track has an affiliation to the band(s) - Radiohead.

About Radiohead : Radiohead formed in Abingdon, Oxfordshire, in 1985 . They have worked with producer Nigel Godrich and cover artist Stanley Donwood since 1994 . Radiohead signed to EMI in 1991 . Their debut single "Creep" became a worldwide hit after the release of their debut album, Pablo Honey (1993) Their popularity and critical standing rose in the United Kingdom with the release Hail to the Thief (2003) was Radiohead's final album for EMI . Their subsequent releases have pioneered alternative release platforms such as pay-what-you-want and BitTorrent . Radiohead self-released their seventh album, In Rainbows (2007), as a download for which Radiohead The group has many notable artists like Thom Yorke,Jonny Greenwood,Colin Greenwood,Ed O'Brien,Philip Selway,Nigel Godrich,Stanley Donwood. Their music is influenced by genres - art rock alternative rock electronica experimental rock.

tabs and chords, guitar tabs, music transcription, music technology, deep learning, music information retrieval, transcribe into tabs & chords, chordify, music renditions, songsterr, reverbnation, tabulature, bollywood chords, ultimate guitar, yousician, guitar lessons, acoustic guitar, electric guitar, guitar tuner, 911 tabs