Guitar Tabs for Baba

(/) Slide Up  (\) Slide Down  (h) Hammer On  (p) Pull Off  (b) Bend (r) Release (v) Vibrato (x) Muted

Tabs & Chords
BPM : 144.0
Check Track 2 for Chord Positions 

    D#                         Cm                                              G#             
E|--------------------------------------------------------------------------------------------
B|--------------------------------------------------------------------------------------------
G|--0-----0--------8-----7-----8-----8-----7-----8-----------8-----7-----8-----8-----7-----8--
D|-----------8-----------------------------------------8--------------------------------------
A|--------------------------------------------------------------------------------------------
E|--------------------------------------------------------------------------------------------

    D#                   A#                      D#                                           
E|--------------------------------------------------------------------------------------------
B|--------------------------------------------6--------------6--------------6--8--------6--8--
G|--0--------8-----7-----8-----8-----7-----8-----------8--------7--8-----8-----------8--------
D|-----8-----------------------------------------8--------------------------------------------
A|--------------------------------------------------------------------------------------------
E|--------------------------------------------------------------------------------------------

                            Cm                                  G#             D#          G# 
E|--------------------6--------------------------------------6--8-----6-----------6-----------
B|--------------6-----------6--8-----6--8--------------6-----------------8-----------6--------
G|-----8-----7-----8--------------------------8-----7--------------------------8-----------8--
D|--------------------------------------------------------------------------------------------
A|--------------------------------------------------------------------------------------------
E|--------------------------------------------------------------------------------------------

                A#                                           D# 
E|--------------------------------------------------------------
B|--------------8-----------6-----------------------------------
G|-----7--5--8--------8--8--------8--8-----8-----7-----8-----7--
D|--------------------------------------------------------------
A|--------------------------------------------------------------
E|--------------------------------------------------------------

Guitar Tabs for Baba






    D#                         Cm                                              G#             
E|--6--------------------------3-----------------------------------------------4--------------
B|--8--------------------------4-----------------------------------------------4--------------
G|--8--------------------------5-----------------------------------------------5--------------
D|--8--------------------------5-----------------------------------------------6--------------
A|--6--------------------------3-----------------------------------------------6--------------
E|-----------------------------------------------------------------------------4--------------

    D#                   A#                      D#                                           
E|--6--------------------1-----------------------6--------------------------------------------
B|--8--------------------3-----------------------8--------------------------------------------
G|--8--------------------3-----------------------8--------------------------------------------
D|--8--------------------3-----------------------8--------------------------------------------
A|--6--------------------1-----------------------6--------------------------------------------
E|--------------------------------------------------------------------------------------------

                            Cm                                  G#             D#          G# 
E|--------------------------3-----------------------------------4--------------6-----------4--
B|--------------------------4-----------------------------------4--------------8-----------4--
G|--------------------------5-----------------------------------5--------------8-----------5--
D|--------------------------5-----------------------------------6--------------8-----------6--
A|--------------------------3-----------------------------------6--------------6-----------6--
E|--------------------------------------------------------------4--------------------------4--

                A#                                           D# 
E|--------------1--------------------------------------------6--
B|--------------3--------------------------------------------8--
G|--------------3--------------------------------------------8--
D|--------------3--------------------------------------------8--
A|--------------1--------------------------------------------6--
E|--------------------------------------------------------------

tabs and chords, guitar tabs, music transcription, music technology, deep learning, music information retrieval, transcribe into tabs & chords, chordify, music renditions, songsterr, reverbnation, tabulature, bollywood chords, ultimate guitar, yousician, guitar lessons, acoustic guitar, electric guitar, guitar tuner, 911 tabs