Guitar Tabs for Baatein Ye Kabhi Na (khamoshiyan)

(/) Slide Up  (\) Slide Down  (h) Hammer On  (p) Pull Off  (b) Bend (r) Release (v) Vibrato (x) Muted

Tabs for Song : Baatein ye kabhi na tu bhoolna
E|-----12-11-9--7--9--------------------------
B|--9-----------------------9--10\12-9--7-----
G|--------------------------------------------
D|--------------------------------------------
A|--------------------------------------------
E|--------------------------------------------


Koyi tere khatir hai jee raha
E|-----------------7v----------7-----------
B|--7--7--9--10-7-----------10----10-9--9--
G|-----------------------------------------
D|-----------------------------------------
A|-----------------------------------------
E|-----------------------------------------
Jaaye tu kahin bhi ye sochna
E|-----12-11-9--7--9-----------------------
B|--9-----------------------9--10\12-9--7--
G|-----------------------------------------
D|-----------------------------------------
A|-----------------------------------------
E|-----------------------------------------
Koyi tere khatir hai jee rahaa
E|-----------------7-----------7-----------
B|--7--7--9--10-7-----------10----10-9--9--
G|-----------------------------------------
D|-----------------------------------------
A|-----------------------------------------
E|-----------------------------------------
Tu jahaan jaaye mehfooz ho
E|-----8--9--11-11----------11-12-11-9v-
B|--9-----------------------------------
G|--------------------------------------
D|--------------------------------------
A|--------------------------------------
E|--------------------------------------
Tu jahaan jaaye mehfooz ho
E|-----8--9--11-11----11-11-12-11-9v-
B|--9--------------------------------
G|-----------------------------------
D|-----------------------------------
A|-----------------------------------
E|-----------------------------------
Dil mera maange bas ye dua
E|--9--11-12-14-12-11-9-----------------
B|-----------------------12-10-12-10-9--
G|--------------------------------------
D|--------------------------------------
A|--------------------------------------
E|--------------------------------------


tabs and chords, guitar tabs, music transcription, music technology, deep learning, music information retrieval, transcribe into tabs & chords, chordify, music renditions, songsterr, reverbnation, tabulature, bollywood chords, ultimate guitar, yousician, guitar lessons, acoustic guitar, electric guitar, guitar tuner, 911 tabs