Guitar Tabs for Tum Hi Aana

Intro
E|-----7--7--5--------------------7--7--5-----------------
B|--5-----------8--7--8--5-----5-----------8--7--8--5-----
G|--------------------------------------------------------
D|--------------------------------------------------------
A|--------------------------------------------------------
E|--------------------------------------------------------


E|--------------5--5--------------------------------------------------
B|---5h-7p5-----------8--7--5--7--------------------7---7/8--7--5-----
G|-----------7--------------------7-----7--5--5--7--------------------
D|--------------------------------------------------------------------
A|--------------------------------------------------------------------
E|--------------------------------------------------------------------

Tere jaane ka gham
Aur na aane ka gham
Phir zamaane ka gham
Kya karein?
E|--------------------------------------------------------------------------------------------------------------
B|---3/5--3------------------------3/5--3------------------------3/5--3-----------------------------------------
G|-----------5------5/7--5--4--------------5------5/7--5--4--------------5------5/7--5--4-----------2---2/4-----
D|---------------------------------------------------------------------------------------------2/5--------------
A|--------------------------------------------------------------------------------------------------------------
E|--------------------------------------------------------------------------------------------------------------

Raah dekhe nazar
Raat bhar jaag kar
Par teri toh khabar na mile
E|--------------------------------------------------------------------------------------------------------------
B|---3/5--3------------------------3/5--3------------------------3/5--3-----------------------------------------
G|-----------5------5/7--5--4--------------5------5/7--5--4--------------5------5/7--5--4-----------2---2/4-----
D|---------------------------------------------------------------------------------------------2/5--------------
A|--------------------------------------------------------------------------------------------------------------
E|--------------------------------------------------------------------------------------------------------------

Bahut aayi gayi yaadein
E|--------------------------------------------------
B|---------------7/8--5-----5---5/7---5\3---5/7-----
G|-----4--5--7--------------------------------------
D|--------------------------------------------------
A|--------------------------------------------------
E|--------------------------------------------------

Magar iss baar tum hi aana
E|---5/7--7--5---7/8--7---5h-7p-5\3--------------------------
B|---------------------------------------5/7---7/8---7\5--5--
G|-----------------------------------------------------------
D|-----------------------------------------------------------
A|-----------------------------------------------------------
E|-----------------------------------------------------------

Iraade phir se jaane ke nahi laana
E|--------------------------------------------------
B|---------------7/8--5-----5---5/7---5\3---5/7-----
G|-----4--5--7--------------------------------------
D|--------------------------------------------------
A|--------------------------------------------------
E|--------------------------------------------------


Tum hi aana!
E|---5/7--7--5---7/8--7---5h-7p-5\3--------------------------
B|---------------------------------------5/7---7/8---7\5--5--
G|-----------------------------------------------------------
D|-----------------------------------------------------------
A|-----------------------------------------------------------
E|-----------------------------------------------------------

Koi toh raah woh hogi
E|--------------------------------------------------
B|--------------------------------------------------
G|--4--4-----5------5/7-----5---7/9---4h-5p4--------
D|--------------------------------------------7-----
A|--------------------------------------------------
E|--------------------------------------------------

Jo mere ghar ko aati hai
E|-----------------------------------------------------
B|-----------------------------------------------------
G|--------------4------4/5-----9---7/9---5h-7p5--4-----
D|-----7--7--------------------------------------------
A|-----------------------------------------------------
E|-----------------------------------------------------

Karo peecha sadaaon ka
E|-----------------------------------------------------
B|-----------------------------------------------------
G|-----4--4-----5------5/7-----5---7/9---4h-5p4--------
D|-----------------------------------------------7-----
A|-----------------------------------------------------
E|-----------------------------------------------------

Suno kya kehna chaahti hai...
E|--------------------------------------------------
B|--------------------------------------------------
G|--------------4------4/5-----9---7/9---5h-7p5--4--
D|-----7--7-----------------------------------------
A|--------------------------------------------------
E|--------------------------------------------------
tabs and chords, guitar tabs, music transcription, music technology, deep learning, music information retrieval, transcribe into tabs & chords, chordify, music renditions, songsterr, reverbnation, tabulature, bollywood chords, ultimate guitar, yousician, guitar lessons, acoustic guitar, electric guitar, guitar tuner, 911 tabs