Guitar Tabs for Ae mere pyaare watan

Tabs for Song : Aye Mere Pyaare watan 

Aye Mere Pyaare watan 
E|--------------------------------------
B|-----------------------2--0--2--3-----
G|--2-----2--2-----2--2-----------------
D|--------------------------------------
A|--------------------------------------
E|--------------------------------------

Aye Mere Bichhade Chaman
E|--------------------------------
B|--0--3--2--0--------0--2--3-----
G|--------------2--2--------------
D|--------------------------------
A|--------------------------------
E|--------------------------------

Tujh Pe Dil Qurabaan
E|--------------------------
B|--0--0--3--2--0-----------
G|-----------------2--2-----
D|--------------------------
A|--------------------------
E|--------------------------

Tu Hi Merii Aarazu 
E|--------------0--0-----------
B|--------------------3--2-----
G|--2--2--2--2-----------------
D|-----------------------------
A|-----------------------------
E|-----------------------------

Tu Hi Merii Aabaru
E|--------------------------------
B|--2--2--2--0--2--3--3--2--0-----
G|--------------------------------
D|--------------------------------
A|--------------------------------
E|--------------------------------

Tu Hi Merii Jaan
E|--------------------------
B|--0--0--3--2--0-----------
G|-----------------2--2-----
D|--------------------------
A|--------------------------
E|--------------------------

Tere Daaman Se Jo Aae 
E|--0--0--0--0-----0--1---1h3--1--0-----
B|--------------------------------------
G|--------------------------------------
D|--------------------------------------
A|--------------------------------------
E|--------------------------------------

Un Havaaon Ko Salaam
E|--0--1--0-----------0--1-----
B|-----------3-----3-----------
G|-----------------------------
D|-----------------------------
A|-----------------------------
E|-----------------------------

Chuum Lun Main Us Zubaan 
E|--0--0--0--0-----0--1---1h3--1--0-----
B|--------------------------------------
G|--------------------------------------
D|--------------------------------------
A|--------------------------------------
E|--------------------------------------

Ko Jisape Aae Teraa Naam 
E|--0--1--0-----------0--1-----
B|-----------3-----3-----------
G|-----------------------------
D|-----------------------------
A|-----------------------------
E|-----------------------------

Sabase Pyaarii Subah Teri
E|--------------------------------------
B|-----------------2--2--0--3--2--0-----
G|--2--2--2--2--2-----------------------
D|--------------------------------------
A|--------------------------------------
E|--------------------------------------

Sabase Rangiin Terii Shaam
E|--0--0--3--2--0--------0--2--3-----
B|-----------------------------------
G|-----------------2--2--------------
D|-----------------------------------
A|-----------------------------------
E|-----------------------------------

Tujh Pe Dil Qurabaan 
E|--------------------------
B|--0--0--3--2--0-----------
G|-----------------2--2-----
D|--------------------------
A|--------------------------
E|--------------------------

Aye Mere Pyaare watan 
E|--------------------------------------
B|-----------------------2--0--2--3-----
G|--2-----2--2-----2--2-----------------
D|--------------------------------------
A|--------------------------------------
E|--------------------------------------

Aye Mere Bichhade Chaman
E|--------------------------------
B|--0--3--2--0--------0--2--3-----
G|--------------2--2--------------
D|--------------------------------
A|--------------------------------
E|--------------------------------

Tujh Pe Dil Qurabaan
E|--------------------------
B|--0--0--3--2--0-----------
G|-----------------2--2-----
D|--------------------------
A|--------------------------
E|--------------------------
tabs and chords, guitar tabs, music contests, music covers, songsterr, reverbnation, renditions, tabulature, bollywood chords, ultimate guitar, yousician, guitar lessons, torrins, fender, gibson, acoustic guitar, electric guitar, youtube covers, gootar, guitar tuner, A-Z tabs, 911 tabs