Guitar Tabs for Aye Mere Humsafar - All Is Well Tabs

(/) Slide Up  (\) Slide Down  (h) Hammer On  (p) Pull Off  (b) Bend (r) Release (v) Vibrato

Tabs for Song : Aye Mere Humsafar

Aye Mere Humsafar Ik Zara Intezaar
E|-----------------------------10-8--------------------
B|--11-10----11-10----11-11-11-------11-10-8--10-8-----
G|--------12-------12-------------------------------10-
D|-----------------------------------------------------
A|-----------------------------------------------------
E|-----------------------------------------------------

Sun Sadayein De Rahi Hai Manzil Pyaar Ki
E|-----------------------------------------------
B|--------10-8-----------10-8--------11-10-------
G|--10-10-------10-10-10-------10----------12-12-
D|--------------------------------12-------------
A|-----------------------------------------------
E|-----------------------------------------------

Jisko Duaaon Mein Maanga
E|--------10-8-----------8--10-8-----
B|--------------11-10-11----------10-
G|--12-12----------------------------
D|-----------------------------------
A|-----------------------------------
E|-----------------------------------

Tu Hai Wahi Rehnuma
E|--------8-----------------
B|-----------11-10----10-11-
G|--10-10----------12-------
D|--------------------------
A|--------------------------
E|--------------------------

Tere Bina Mushkil Hai
E|--------10-8-----------8--10-8-----
B|--------------11-10-11----------10-
G|--12-12----------------------------
D|-----------------------------------
A|-----------------------------------
E|-----------------------------------

Ek Bhi Kadam Chalna
E|--------8-----------------
B|-----------11-10----10-11-
G|--10-10----------12-------
D|--------------------------
A|--------------------------
E|--------------------------

Bin Tere Kahaan Hai Manzil Pyaar Ki
E|--------------10----------------------------------
B|--11/12-12-13----13-13-13-10----------11-10-------
G|-----------------------------12-10----------12-12-
D|-----------------------------------12-------------
A|--------------------------------------------------
E|--------------------------------------------------

Again Repeat Aye Mere Humsafar..
tabs and chords, guitar tabs, music contests, music covers, songsterr, reverbnation, renditions, tabulature, bollywood chords, ultimate guitar, yousician, guitar lessons, torrins, fender, gibson, acoustic guitar, electric guitar, youtube covers, gootar, guitar tuner, A-Z tabs, 911 tabs