Guitar Tabs for Ae Mere Humsafar - Qayamat Tabs

(/) Slide Up  (\) Slide Down  (h) Hammer On  (p) Pull Off  (b) Bend (r) Release (v) Vibrato

Tabs for Song : Ae Mere Humsafar

Ae Mere Humsafar
E|--------------------------------
B|--4-----3--1-----4-----3--1-----
G|--------------------------------
D|--------------------------------
A|--------------------------------
E|--------------------------------

Ek Zara Intezaar
E|-----------3--1-----------------
B|--4--4--4--------4--3--1--------
G|--------------------------3-----
D|--------------------------------
A|--------------------------------
E|--------------------------------

Sun Sadaayein De Rahi
E|-----------------------------------------
B|--------1--1--3--------------1--1--3-----
G|--3-----------------3--3--3--------------
D|-----------------------------------------
A|-----------------------------------------
E|-----------------------------------------

Hain Manzil Pyar Ki
E|-----------------------
B|--------4--3--1--1-----
G|--0--------------------
D|-----------------------
A|-----------------------
E|-----------------------

Ab Hai Judaai Ka Mausam
E|-----------3--1-----------1--------
B|--1--1--1--------4--3--4-----3-----
G|-----------------------------------
D|-----------------------------------
A|-----------------------------------
E|-----------------------------------

Do Pal Ka Mehmaan
E|-----------1--------------------
B|--------------4--3--1--3--4-----
G|--3--3--------------------------
D|--------------------------------
A|--------------------------------
E|--------------------------------

Kaise Naa Jaayega Andhera 
E|-----------3--1-----------1--------
B|--1--1--1--------4--3--4-----3-----
G|-----------------------------------
D|-----------------------------------
A|-----------------------------------
E|-----------------------------------

Kyoon Naa Thamega Toofan
E|-----------1--------------------
B|--------------4--3--1--3--4-----
G|--3--3--------------------------
D|--------------------------------
A|--------------------------------
E|--------------------------------

Kaise Naa Milegi
E|--0-----0-----1--3--1-----------
B|-----------------------4--3-----
G|--------------------------------
D|--------------------------------
A|--------------------------------
E|--------------------------------

Manzil Ppyar Ki
E|-----------------------
B|--------4--3--1--1-----
G|--0--------------------
D|-----------------------
A|-----------------------
E|-----------------------




Add more lines by placing cursor below and adding notes
tabs and chords, guitar tabs, music transcription, music technology, deep learning, music information retrieval, transcribe into tabs & chords, chordify, music renditions, songsterr, reverbnation, tabulature, bollywood chords, ultimate guitar, yousician, guitar lessons, acoustic guitar, electric guitar, guitar tuner, 911 tabs