Guitar Tabs for Avengers Theme

(/) Slide Up  (\) Slide Down  (h) Hammer On  (p) Pull Off  (b) Bend (r) Release (v) Vibrato (x) Muted

Tabs for Song : 
BPM : 200

Song lyrics here 
E|-----------------0-----------------------------------------0-----------------------------------------------------------------
B|--------------------------12-------------------------7-----------------------------------------0-----------------------------
G|--------------------------------------------12----------------------------------------------------2--------------0-----------
D|-----------------------------------7--------------------------------------------------------------2--------------2--------4--
A|--2--------------------------------------------------------2-----2--2--2--3--------------2--2-----4--------------3--------5--
E|--0--------------------------------------------------------0-----0--0--0--3-----------------------5--------------3--------5--

E|-----------------------------------------------------------------------------------------------------------------------------
B|-----------------------------------------------------------------------------------------------------------------------------
G|--------0--------0--------0-----0--------0--------0-----2--------2--------2-----0--------------2-----------0--------0--------
D|-----------2--2-----2--2-----2-----2--2-----2--2-----0-----2--2-----2--2-----2-----------2--2-----2-----------2--2-----4--4--
A|--------2-----------------------3-----------------------4--------------------------3--------------------3--------------5--5--
E|--------0-----------------------3-----------------------5-----------------------------3--------------3-----------------5--5--

E|--0-----------------------0-----------------------0-----------------------
B|--------------------0-----------------------0-----------------------0-----
G|--------5-----5-----------------5-----5-----------------5-----5-----------
D|--------------------------------------------------------------------------
A|--2--2--2--2--2--2--2--2--2--2--2--2--2--2--2--2--3--3--3--3--3--3--3--3--
E|--0--0--0--0--0--0--0--0--0--0--0--0--0--0--0--0--3--3--3--3--3--3--3--3--

E|--0-----------------------0-----------------------0-----------------------0-----------------------0-----------------------
B|--------------------0-----------------------0-----------------------0-----------------------0-----------------------0-----
G|--------5-----5-----------------------------------------------------------------------------------------------------------
D|--------------------------------5-----5-----------------5-----5-----------------5-----5-----------------5-----5-----------
A|--3--3--3--3--3--3--3--3--2-----------------------2-----------------------2-----------------------3-----------------------
E|--3--3--3--3--3--3--3--3--0--0--0--0--0--0--0--0--0--0--0--0--0--0--0--0--0--0--0--0--0--0--0--0--3--3--3--3--3--3--3--3--

E|--------------------------------------------------------------------------------------------------------0-----------------
B|-----------------------------------------------------------0--------------------------------------------------------------
G|--------------0-----------------------0-----------------------2--------2--------2-----0--------0--------------5-----5-----
D|--4--------------------0--------0--------2--2-----2--------------2--2-----2--2-----2-----2--2-----4--4--------------------
A|--5--5--5--0--2--2--2-----2--2-----2--3--------3-----3--3-----4-----------------------3-----------5--5--2--2--2--2--2--2--
E|--5-----------0-----------------------3-----------------------5-----------------------3-----------5--5--0--0--0--0--0--0--

E|--------0-----------------------0-----------------------------------------------0-----------------------0-----------------
B|--0-----------------------0-----------------------0-----0-----------------0-----------------------0-----------------------
G|--------------------5-----------------5-----5-----------------5-----5-----------------5-----5-----------------5-----5-----
D|--------------5--------------------------------3--------------------------------------------------------------------------
A|--2--2--2--2--2--2--2--2--2--2--3--3--3--3--3-----3--3--3--3--3--3--3--3--3--3--2-----------------------2-----------------
E|--0--0--0--0--0--0--0--0--0--0--3--3--3--3--3--3--3--3--3--3--3--3--3--3--3--3--0--0--0--0--0--0--0--0--0--0--0--0--0--0--

E|--------0-----------------------0-----------------0-----------------------0-----------------------0-----------------------
B|--0-----------------------0-----------------5--0--------------------------5-----------------------4-----------------------
G|--------------5-----5-----------------5-----0--0--------5-----5-----5-----------5-----5-----4-----------5-----5-----4-----
D|-----------------------------------------------0--2--2--2--2--2--2--2--2--2--2--2--2--2--2--2--2--2--2--2--2--2--2--2--2--
A|--------3-----------------------3-----------x--x--------------------------------------------------------------------------
E|--0--0--3--3--3--3--3--3--3--3--3--3--3--3--------------------------------------------------------------------------------

E|--2-----------------------0-----------------------0-----------------------2-----------------------0-----------------------
B|--------------------------------------------------4-----------------------0-----------------------------------------------
G|--------5-----5-----4-----------5-----5-----4-----------5-----5-----4-----------5-----5-----4-----------5-----5-----4-----
D|--2--2--2--2--2--2--2--2--0--0--0--0--0--0--0--0--0--0--0--0--0--0--0--0--0--0--0--0--0--0--0--0--------------------------
A|--------------------------------------------------------------------------------------------------3--3--3--3--3--3--3--3--
E|--------------------------------------------------------------------------------------------------------------------------

E|--0-----------------------0-----------------------2-----------------------2-----------------------2-----------------------
B|--5-----------------------4-----------------------------------------------------------------------0-----------------------
G|--------5-----5-----4-----------5-----5-----4-----------5-----5-----4-----4-----5-----5-----4-----4-----5-----5-----4-----
D|--------------------------------------------------------------------------------------------------------------------------
A|--3--3--3--3--3--3--3--3--3--3--3--3--3--3--3--3--3--3--3--3--3--3--3--3--2--2--2--2--2--2--2--2--2--2--2--2--2--2--2--2--
E|--------------------------------------------------------------------------------------------------------------------------

E|--2-----------------------3--------------------0--------0--------0--------0--------0-----5--------5--------5-----5--------
B|--------------------------------------------0-----0--0-----0--0-----0--0-----0--0-----0-----5--5-----5--5-----5-----5--5--
G|--4-----5-----5-----4-----4-----5-----5-----4-----------------------------------------4--2--------------------------------
D|-----------------------------------------------2-----------------------2-----2-----------2-----------------------5--------
A|--2--2--2--2--2--2--2--2--2--2--2--2--2--2--2--2-----------------------------------------4-----------------------5--------
E|-----------------------------------------------0--------------------------------------------------------------------------

E|--3--------3-----0--------0--------0-----0--------0--------0-----5--------5--------5-----0--------------------0-----------
B|-----5--5-----3-----0--0-----0--0-----0-----3--0-----0--0-----0-----5--5-----5--5-----5--5-----------0--------------------
G|--------------------------------------------------------------4--6-----------------------------------5------8\---------0--
D|-----4-----------2-----------------------------2-----2-----------------------7--------------------------------------2-----
A|-----5-----------2-----------------------3-----------------------0------------------------------------------9\---2--------
E|-----------------0-----------------------3-----------------------------------------------7--7--7--7--7--7---7\0-----------

E|-----------------------------------0--------0--------------7--5-----------------------------------3-----------------2-----
B|--------0--------------------------------1--------------0-----3-----------------2--------------------------1--------------
G|-----0-----0-----0--------------0-----0--------0-----0--------2--------2-----2-----2-----2--------------0-----0-----------
D|--2-----------2-----2--------2-----2--------------2-----------------2-----2-----------2-----2--------2-----------2-----0--
A|-----------------------2--3-----------------------------------0--4-----------------------------4--3-----------------------
E|--------------------------3-----------------------------------------------------------------------------------------------

E|--------------0--------------------------------------------0--------0--------------7--8--------------------------------0--
B|-----3--------------------------0--------------------------------1--------------0-----10----10----10----10----10----10----
G|--2-----2--------------0-----0-----0-----0--------------0-----0--------0-----0-----------9-----9-----9-----9-----9--------
D|-----------0--------2-----2-----------2-----2--------2-----2--------------2-----------------------------11----------------
A|-----------------2-----------------------------2--3-----------------------------------0-----------------------------------
E|--------------0-----------------------------------3-----------------------------------------------------------------------

E|--0--0--------0--0--------3-----------------------------0-----0-----------------------------------------0v-
B|--1--1--------3--3--------0-----------------------------------------12-------------------------7-----------
G|--0--0--------2--2--------0-----------------------------------------------------------12-------------------
D|--------------0-----------2--------------------------------------------7-----------------------0--------2v-
A|--3-----------------------2--------------3-----------------------------5--------------7-----------------2v-
E|--------------------------0--------------3-----------------------------5--------------8-----------------0v-

Song lyrics here 
E|--
B|--
G|--
D|--
A|--
E|--

Use manual mode to free up cursor. Paste any tab in acousterr tab maker and we'll play it !!!
tabs and chords, guitar tabs, music transcription, music technology, deep learning, music information retrieval, transcribe into tabs & chords, chordify, music renditions, songsterr, reverbnation, tabulature, bollywood chords, ultimate guitar, yousician, guitar lessons, acoustic guitar, electric guitar, guitar tuner, 911 tabs