Guitar Tabs for Avengers

The Avengers Theme

Intro
E|--------------------------------------------------------------------------------------------------------------------
B|--------------------------------------------------------------------------------------------------------------------
G|--------------------------------------------------------------------------------------------------------------------
D|--2--2--2-----2--2--2-----2--2--2--2-----3--3--3-----3--3--4-----4--4--4--4-----5--5--5-----5--5--4-----4--4--4--4--
A|--0--0--0-----0--0--0-----0--0--0--0-----0--0--0-----0--0--0-----0--0--0--0-----0--0--0-----0--0--0-----0--0--0--0--
E|--------------------------------------------------------------------------------------------------------------------

E|--------------------------------
B|--------------------------------
G|--------------------------------
D|--3--3--3-----3--3--------------
A|--0--0--0-----0--0-----3-----5--
E|-----------------------1-----3--

"Verse" Melody Line
E|--------------------------------------------------------------------------------------------------
B|--------5--3--1--1--3--5--5--------5--3--1--1--0--------5--3--1--1--3--5--5--------5--3--1--1--0--
G|--2--------------------------2--------------------2--------------------------2--------------------
D|--------------------------------------------------------------------------------------------------
A|--------------------------------------------------------------------------------------------------
E|--------------------------------------------------------------------------------------------------

Main Melody Line
E|--0-----0--0--7--5-----3--2--0-----0--0--7--9--5--7--
B|-----------------------------------------------------
G|-----------------------------------------------------
D|-----------------------------------------------------
A|-----------------------------------------------------
E|-----------------------------------------------------


tabs and chords, guitar tabs, music contests, music covers, songsterr, reverbnation, renditions, tabulature, bollywood chords, ultimate guitar, yousician, guitar lessons, torrins, fender, gibson, acoustic guitar, electric guitar, youtube covers, gootar, guitar tuner, A-Z tabs, 911 tabs