Avengers Theme - Guitar Tabs

(/) Slide Up  (\) Slide Down  (h) Hammer On  (p) Pull Off  (b) Bend (r) Release (v) Vibrato (x) Muted

Tabs for Song : avengers 
E|-----------------------------------------------------------0-----0--0--0--0-----1--1--1-----1--1--0-----0--0--0--0--
B|--3--3--3-----3--3--3-----3--3--3--3-----4--4--4-----4--4-----------------------------------------------------------
G|--------------------------------------------------------------------------------------------------------------------
D|--------------------------------------------------------------------------------------------------------------------
A|--------------------------------------------------------------------------------------------------------------------
E|--------------------------------------------------------------------------------------------------------------------

E|--------------------------------------------------------------------------------------------0-----0--0--0--0-----
B|--4--4--4-----4--4--------1-----3--3--3-----3--3--3-----3--3--3--3-----4--4--4-----4--4--------------------------
G|--------------------3--------------------------------------------------------------------------------------------
D|-----------------------------------------------------------------------------------------------------------------
A|-----------------------------------------------------------------------------------------------------------------
E|-----------------------------------------------------------------------------------------------------------------

E|--1--1--1-----1--1--0-----0--0--0--0--------------------------------------
B|--------------------------------------4--4--4-----4--4--------1-----------
G|--------------------------------------------------------3-----------0-----
D|--------------------------------------------------------------------------
A|--------------------------------------------------------------------------
E|--------------------------------------------------------------------------



E|-----------------------------------------------------
B|--------3-----1-----------------1-----3-----3--------
G|--------------------3-----3-----------------------0--
D|-----------------------------------------------------
A|-----------------------------------------------------
E|-----------------------------------------------------

E|-----------------------------------------------
B|--------3-----1--------------------------------
G|--------------------3-----3-----2-----0--------
D|-----------------------------------------------
A|-----------------------------------------------
E|-----------------------------------------------

E|--------------------------------------------
B|--3-----1-----------------1-----3-----3--------
G|--------------3-----3-----------------------0--
D|-----------------------------------------------
A|-----------------------------------------------
E|-----------------------------------------------
 
E|--------------------------------------------------------------------------------------
B|--3-----1--------------------------------3-----1-----------------1-----3-----3--------
G|--------------3-----3-----2-----0--------------------3-----3-----------------------0--
D|--------------------------------------------------------------------------------------
A|--------------------------------------------------------------------------------------
E|--------------------------------------------------------------------------------------

E|-----------3-----0--------------------------------3-----4-----3--
B|-----------------------1--------3--------------------------------
G|--------------------------------------3-----0--------------------
D|-----------------------------------------------------------------
A|-----------------------------------------------------------------
E|-----------------------------------------------------------------

E|-----------------8--------5-----1-----------------0-----------------0-----------
B|-----------1--------------------------1-----3--------------4--------------------
G|--------------------------------------------------------------------------------
D|--------------------------------------------------------------------------------
A|--------------------------------------------------------------------------------
E|--------------------------------------------------------------------------------

E|-----0--------0--------7--------5-----------3--------2-----------0--
B|--------------------------------------------------------------------
G|--------------------------------------------------------------------
D|--------------------------------------------------------------------
A|--------------------------------------------------------------------
E|--------------------------------------------------------------------

E|--------0-----0-----7-----9--------5--------7--------0--------
B|--------------------------------------------------------------
G|--------------------------------------------------------------
D|--------------------------------------------------------------
A|--------------------------------------------------------------
E|--------------------------------------------------------------

E|--------0--------0-----------7--------5-----------3--------2-----------------0-----0-----2--
B|-----------------------------------------------------------------------3--------------------
G|--------------------------------------------------------------------------------------------
D|--------------------------------------------------------------------------------------------
A|--------------------------------------------------------------------------------------------
E|--------------------------------------------------------------------------------------------

E|-----------------0-----0-----2--------0--------
B|-----------3-----------------------------------
G|-----------------------------------------------
D|-----------------------------------------------
A|-----------------------------------------------
E|-----------------------------------------------

BPM : 200

tabs and chords, guitar tabs, music transcription, music technology, deep learning, music information retrieval, transcribe into tabs & chords, chordify, music renditions, songsterr, reverbnation, tabulature, bollywood chords, ultimate guitar, yousician, guitar lessons, acoustic guitar, electric guitar, guitar tuner, 911 tabs