Guitar Tabs for Ask Laftan Anlamaz

(/) Slide Up  (\) Slide Down  (h) Hammer On  (p) Pull Off  (b) Bend (r) Release (v) Vibrato (x) Muted

Tabs for Song : 

Song lyrics here
E|--12-12-10-------10-
B|-----------13-12----
G|--------------------
D|--------------------
A|--------------------
E|--------------------

Song lyrics here
E|--10-10----------
B|--------13-12-10-
G|-----------------
D|-----------------
A|-----------------
E|-----------------

E|--------------------
B|--13-13-12-10-------
G|--------------12-12-
D|--------------------
A|--------------------
E|--------------------

E|-----------
B|--12-13-10-
G|-----------
D|-----------
A|-----------
E|-----------

E|-----------------------------------------------
B|------------------------6\8--6---8\10-10-11-8--
G|-----------5--7---7\8--------------------------
D|--5--7--8--------------------------------------
A|-----------------------------------------------
E|-----------------------------------------------







Paste any tab in acousterr's tab maker and we'll play it !!!
Now supports capo and sound effects for vibrato/pull-off/hammer/bends/mutes etc !!! Checkout help section
tabs and chords, guitar tabs, music transcription, music technology, deep learning, music information retrieval, transcribe into tabs & chords, chordify, music renditions, songsterr, reverbnation, tabulature, bollywood chords, ultimate guitar, yousician, guitar lessons, acoustic guitar, electric guitar, guitar tuner, 911 tabs