Guitar Tabs for All I Ask - Adele Intro

Adele - All I ask Intro Tabs
    Emaj7                                              G#m
e|-------------------------|--------------------------|--------------------------|--------------------------|
B|--4--------5--------7----|---4--------5--------7----|---4--------5--------7----|---4--------5--------7----|
G|--------4--------4-------|---------4--------4-------|---------4--------4-------|---------4--------4-------|
D|-----6--------6--------6-|------6--------6--------6-|------6--------6--------6-|------6--------6--------6-|
A|-------------------------|---7----------------------|--------------------------|--------------------------|
E|--0----------------------|--------------------------|---4----------------------|---4----------------------|
                                   
   
    A                                                  B                                      E/B      B7
e|-----------0--------2----|------------0--------2----|---------------------2----|---2--------4--------5----|
B|--4-----0--------0-------|---4-----0--------0-------|---4--------5-------------|---4--------5--------7----|
G|-----2--------2--------2-|------2--------2--------2-|---------4--------4-------|---------4--------4-------|
D|-------------------------|--------------------------|------4--------4--------4-|------4--------4----------|
A|--0----------------------|---0----------------------|---2----------------------|---2----------------------|
E|-------------------------|--------------------------|--------------------------|------------------------7-|
                                                           
tabs and chords, guitar tabs, music transcription, music technology, deep learning, music information retrieval, transcribe into tabs & chords, chordify, music renditions, songsterr, reverbnation, tabulature, bollywood chords, ultimate guitar, yousician, guitar lessons, acoustic guitar, electric guitar, guitar tuner, 911 tabs