Guitar Tabs for All I Ask

(/) Slide Up  (\) Slide Down  (h) Hammer On  (p) Pull Off  (b) Bend (r) Release (v) Vibrato (x) Muted

Tabs for Song : 
BPM : 200

Song lyrics here 
D|-----------x-----------------x-----------------x-----------------x-----------------x-----------------x-----------------x--
A|-----------x-----0-----------x-----0-----------x-----0-----------x-----0-----------x-----0-----------x-----0-----------x--
F|--0-----1--x--------------1--x--------------1--x--------0--------x--------0--------x--------5--------x--------0--0--1--x--
D|--0--0-----x--------0--0-----x--------0--0-----x-----------0--5--x-----------0--5--x-----------0--5--x-----------------x--
A|--0--------x-----------------x-----------------x-----------------x-----------------x-----------------x--------0--------x--
D|--0--------x--0-----0--------x--0-----0--------x--0-----4--------x--0-----4--------x--4-----5--------x--5--------------x--

D|--------2-----0--------------------x-----------------x--------------x--------------------x-----------------x--
A|-----0--4-----------4--0--2-----0--x--------------12-x--0--2--4--0--x--------------------x--------0--0-----x--
F|--------3--3-----3-----0-----0-----x--------0-----12-x-----0--------x--------0--------0--x-----------------x--
D|-----------------------0-----------x-----0-----------x-----0--------x-----0--------0-----x-----0--------5--x--
A|--0--------------------------------x-----------------x--------------x--------------------x-----------------x--
D|-----------------------0-----------x--0--------0-----x--0--4--------x--4--------4--------x--4--------5-----x--

D|--------------x--------------x-----------------x--------------x--------------x-----0-----------x-----------------x--
A|--------------x--------------x-----0--2--0-----x-----2--4--0--x-----------12-x--------4--------x-----2--0--------x--
F|--------------x-----------1--x--------3--------x-----0--------x--------0--12-x--------------0--x-----------------x--
D|--4--5-----5--x--4--2--4-----x--------4-----2--x--0--0--------x-----0--------x-----------0-----x--------------0--x--
A|--------------x-----0--------x--0--------------x--------------x--------------x-----------------x-----------------x--
D|--------5-----x--------------x-----------------x-----0--------x--0-----------x--0-----4--------x--4--------4-----x--

D|-----------------x--------------x-----------------x--------------x-----------0-----x-----0--4--4--x--0--0-----x--
A|--------0--0-----x--------------x--------0--0-----x--------------x-----2--4-----4--x-----4--------x-----4--4--x--
F|-----------------x--------------x--------------1--x-----0--0--0--x-----------------x-----0--------x-----0-----x--
D|-----0--------5--x--4--5-----5--x-----5-----------x--------------x-----------------x-----0--------x-----0-----x--
A|-----------------x--------------x-----------0-----x--0-----1-----x--1--------2-----x--2-----------x-----0-----x--
D|--4--------5-----x--------5-----x--5--------------x--------------x-----------------x--------------x-----0-----x--

D|-----------0--4--4--x--0--2-----x--2-----------x-----------4-----x-----0-----x-----0--2--2--4--2--x--4--4-----x--
A|-----------4--------x-----4--2--x--2-----------x-----------------x--------0--x--2-----------------x--5--5-----x--
F|--------0--0--------x-----2-----x--2--2--------x--------2--------x-----------x--------------------x--3--3-----x--
D|-----0-----0--------x-----2-----x--2--------2--x-----2-----------x-----------x--------------------x--0--------x--
A|--------------------x-----2-----x--2-----------x-----------0--0--x--0--------x--------------------x--0--------x--
D|--0-----------------x-----2-----x--2-----2-----x--2--------------x-----------x-----------0--------x--0-----0--x--

D|--5--7--7--7--x--------------x--------------x--------------------x-----------------9--x-----7--4-----x--4--4-----x--
A|--------0-----x--10-9--10----x--10----------x-----------10-9--7--x-----9--10----10----x--------5--5--x--5--5-----x--
F|--------0-----x--------8--8--x--8--8--------x--------8-----------x--------------------x--------3--3--x--3--------x--
D|--------0-----x--------9-----x--9--------9--x-----9--------------x--------------------x--------------x--0--------x--
A|--------0-----x-----6--7-----x--7-----7-----x--7--------0--------x--0--------0--------x--0-----------x--0--------x--
D|--------9-----x--9-----------x--------------x--------------------x--------------------x--------0-----x--0-----0--x--

D|--5--7--7--7--x--9-----x--7--------x--------------x--------------------x-----------------9--x-----7--4--x--
A|--------0-----x-----9--x-----10----x--10----------x-----------10-9--7--x-----9--10----10----x--------5--x--
F|--------0-----x--------x-----8--8--x--8--8--------x--------8-----------x--------------------x--------3--x--
D|--------0-----x--------x-----9--9--x--9--------9--x-----9--------------x--------------------x-----------x--
A|--------0-----x--------x-----7-----x--7-----7-----x--7--------0--------x--0--------0--------x--0--------x--
D|--------9-----x--7-----x-----------x--------------x--------------------x--------------------x--------0--x--

D|--7--2--x--4--0--x--------------------x-----------0--x--5--x--5--5--4--5--x--4--5-----2--4--x--0--x--x--x--0--
A|--------x-----0--x--0--------5--4--2--x-----0--2-----x--2--x--------------x-----------4-----x--0--x--x--x--0--
F|--------x-----0--x-----0--------------x--------------x--0--x--------------x-----------3-----x--0--x--x--x--0--
D|--------x--------x--------------------x--------------x-----x--------------x-----------------x-----x--x--x--0--
A|-----4--x--------x--------2-----------x--2-----------x-----x-----0--------x--------0--------x-----x--x--x--0--
D|--------x-----2--x--------------------x--------2-----x--2--x--------------x-----------------x--0--x--x--x--0--

D|-----------------------x-----------x-----------x-----------------x--------------x-----------------------x--
A|-----------------------x-----------x-----------x-----------------x--------------x-----------------------x--
F|-----------------0-----x--0--------x--1--3--3--x-----1--0--1-----x--1-----------x--------1--------0-----x--
D|-----------0--2-----2--x--0--------x-----------x-----------2-----x--2--2--------x-----2-----2--5-----2--x--
A|--0--0--2--------------x-----0-----x--------2--x--2-----------2--x-----------2--x-----------------------x--
D|-----------------0-----x--0--0--0--x--0--------x--------1--2-----x--2-----2-----x--2--------2--5--------x--

D|-----------------x-----------x-----------x--------------x--------x-----------x--------------x-----------
A|--------------2--x-----0-----x-----------x--------------x--2--0--x--0--------x--------------x-----------
F|-----0--1--1-----x--------0--x--0--------x--1--3--3--3--x--3-----x-----1-----x--1-----------x-----------
D|-----------------x--------0--x--0--------x--------------x--0-----x-----2--2--x--2--2--------x--------2--
A|--------0--------x--0-----0--x--0--0-----x--------2-----x--2-----x-----------x-----------2--x-----2-----
D|--5--------------x--------0--x--0--0--0--x--0-----------x--------x--1--2-----x--2-----2-----x--2--------

D|--------------x-----------------x-----------x--------x--------x-----------x-----------x-----x--------------x--
A|--------------x--------------2--x-----0-----x--0-----x--0-----x-----------x-----------x-----x--------------x--
F|--------0-----x-----0--1--1-----x--------0--x--------x--------x--1--0-----x-----------x--1--x--1--1--0--1--x--
D|--2--5-----2--x-----------------x-----------x-----2--x-----0--x--------2--x--0-----0--x--2--x--------------x--
A|--------------x--------0--------x--0--------x-----4--x-----2--x--2--------x-----2-----x-----x-----0--------x--
D|--2--5--------x--5--------------x--------0--x--------x--------x-----------x-----2-----x--2--x--------------x--

D|-----------------x--------------
A|-----------------x--------------
F|--0--1-----------x--------------
D|-----------2--4--x--0-----------
A|--------0--------x--0-----------
D|-----------------x--0-----------
tabs and chords, guitar tabs, music transcription, music technology, deep learning, music information retrieval, transcribe into tabs & chords, chordify, music renditions, songsterr, reverbnation, tabulature, bollywood chords, ultimate guitar, yousician, guitar lessons, acoustic guitar, electric guitar, guitar tuner, 911 tabs