Guitar Tabs for Ashiqui Love Theme

Tabs for Song : Ashiqui2 Love Theme

E|--1--3--4--1--3--4--------------------
B|--------------------1--2--2--1--2-----
G|--------------------------------------
D|--------------------------------------
A|--------------------------------------
E|--------------------------------------


E|-----1--3-----1--3-----------------------
B|--4--------4--------2--2--1--1-----1-----
G|--------------------------------3--------
D|-----------------------------------------
A|-----------------------------------------
E|-----------------------------------------


E|--------1--------1--8--8--6--6--4--6-----
B|--2--4-----2--4--------------------------
G|-----------------------------------------
D|-----------------------------------------
A|-----------------------------------------
E|-----------------------------------------


E|--------------8--8--9--8-----8--------
B|--8--8--5--5--------------8-----------
G|--------------------------------------
D|--------------------------------------
A|--------------------------------------
E|--------------------------------------
tabs and chords, guitar tabs, music transcription, music technology, deep learning, music information retrieval, transcribe into tabs & chords, chordify, music renditions, songsterr, reverbnation, tabulature, bollywood chords, ultimate guitar, yousician, guitar lessons, acoustic guitar, electric guitar, guitar tuner, 911 tabs