Guitar Tabs for Bhula Dena Mujhe - Ashiqui 2 Tabs

bhula dena mujhe
E|--------------------------------
B|-----0-----0-----0--------------
G|--------2-----------2--2--0-----
D|--2-----------------------------
A|--------------------------------
E|--------------------------------

hai alvida tujhe
E|-----------------------------------
B|-----1--0--1-----1--1--0--0--------
G|-----------------------------2-----
D|--2--------------------------------
A|-----------------------------------
E|-----------------------------------

tujhe jeena hai mere bina
E|-----------------------------------------------------
B|--1--0-----------------------------------------------
G|--------0-----2--------------------------------------
D|-----------4------4\5---2h4--0------0h4--4--2--2-----
A|-----------------------------------------------------
E|-----------------------------------------------------

safar ye hai tera
E|--------------------------------
B|-----0-----0-----0--------------
G|--------2-----------2--2--0-----
D|--2-----------------------------
A|--------------------------------
E|--------------------------------

ye raasta tera
E|-----------------------------------
B|-----1--0--1-----1--1--0--0--------
G|-----------------------------2-----
D|--2--------------------------------
A|-----------------------------------
E|-----------------------------------

tujhe jeena hai mere bina
E|-----------------------------------------------------
B|--1--0-----------------------------------------------
G|--------0-----2--------------------------------------
D|-----------4------4\5---2h4--0------0h4--4--2--2-----
A|-----------------------------------------------------
E|-----------------------------------------------------

ho teri sari shoharatein
E|-----------3--2---0h2--0--0-----
B|--0--0--3-----------------------
G|--------------------------------
D|--------------------------------
A|--------------------------------
E|--------------------------------

hai ye dua
E|--------------------
B|--3--0--3--3--------
G|--------------2-----
D|--------------------
A|--------------------
E|--------------------

tujhi pe sari rahmatein
E|-----------3--2---0h2--0--0-----
B|--0--0--3-----------------------
G|--------------------------------
D|--------------------------------
A|--------------------------------
E|--------------------------------

hai ye duaa
E|--------------------
B|--3--0--3--3--------
G|--------------2-----
D|--------------------
A|--------------------
E|--------------------

tujhe jeena hai mere bina
E|--------------------------------------------
B|--------0-----------------------------------
G|--0--2------2\4-----------------------------
D|-----------------4---2h4-----0--4--2--2-----
A|--------------------------------------------
E|--------------------------------------------

tu hi hai kinara tera
E|--------------------------
B|-----0--0--0--0--0--0-----
G|--2--------------------2--
D|--------------------------
A|--------------------------
E|--------------------------

tu hi to sahara tera
E|--------------------------
B|-----0--0--0--0--0--0-----
G|--2--------------------2--
D|--------------------------
A|--------------------------
E|--------------------------

tu hi hai tarana kal ka
E|--------------------------
B|-----1--1--1--1--1--1--0--
G|--2-----------------------
D|--------------------------
A|--------------------------
E|--------------------------

tu hi to fasana kal ka
E|--------------------------
B|--0--1--1--1--1--1--1--0--
G|--------------------------
D|--------------------------
A|--------------------------
E|--------------------------

khud pe yakeen tu karna
E|--------------------------
B|--0--3--3--3--3--3--3--1--
G|--------------------------
D|--------------------------
A|--------------------------
E|--------------------------

banna tu apna khuda..
E|--------------3--2--2--0--0--
B|--1--3--3--3-----------------
G|-----------------------------
D|-----------------------------
A|-----------------------------
E|-----------------------------

tu hi hai kinara tera
E|--2--3--3--3--3--3--3--2--
B|--------------------------
G|--------------------------
D|--------------------------
A|--------------------------
E|--------------------------

tu hi to sahara tera
E|--2--3--3--3--3--3--3--2--
B|--------------------------
G|--------------------------
D|--------------------------
A|--------------------------
E|--------------------------

tu hi hai tarana kal ka
E|--0--2--2--2--2--2--2--0--
B|--------------------------
G|--------------------------
D|--------------------------
A|--------------------------
E|--------------------------

tu hi to fasana kal ka
E|--0--2--2--2--2--2--2--0--
B|--------------------------
G|--------------------------
D|--------------------------
A|--------------------------
E|--------------------------

khud pe yakeen tu karna
E|-----0--0--0--0--0--0-----
B|--3--------------------3--
G|--------------------------
D|--------------------------
A|--------------------------
E|--------------------------

banna tu apna khuda
E|-----0--0--0--0--0--0-----0-----------
B|--3--------------------4-----4-----4--
G|--------------------------------6-----
D|--------------------------------------
A|--------------------------------------
E|--------------------------------------





tabs and chords, guitar tabs, music transcription, music technology, deep learning, music information retrieval, transcribe into tabs & chords, chordify, music renditions, songsterr, reverbnation, tabulature, bollywood chords, ultimate guitar, yousician, guitar lessons, acoustic guitar, electric guitar, guitar tuner, 911 tabs