Guitar Tabs for Antiheroes

(/) Slide Up  (\) Slide Down  (h) Hammer On  (p) Pull Off  (b) Bend (r) Release (v) Vibrato (x) Muted

Tabs for Song : 
BPM : 98

Intro Riff
E|-----------------------------------------------------------------------------------------------------
B|-----------------------------------------------------------------------------------------------------
G|--9-7--7--------------0------------------------------------------------------------------7--/12-11--9
D|-----9--9-7-------0-h2-------------------------------------8-7--------------9-7----7-7-9---9---------
A|--------------0-h2----------7--7--5-7---5-6----7-7--5-7-5--------7--7-5-/10-----10-------------------
E|-----------0-h3-----------------------5------------------5-------------------------------------------

Find me in the dancehall...
E|-------------------------
B|-------------------------
G|-------------------------  
D|-------------------------  x 2 
A|------------------2-h4---
E|--0------2-h3---- -------

In the hot night...
E|--------------------------------------------------------------------------------------------------
B|--------------------------------------------------------------------------------------------------
G|----------------------------------------------------------------------------------------2---5-4--
D|----------------9--9-7-----------------------4---5-4----------------------------2---5-4---4------
A|-7-7-7--7--10-10------10---3-3-3--2-3-3----5---5--------7-7-7--7--10-10/-----2----3-------------- 
E|-------------------------------------------------------------------------3-3---------------------
I'm a zero...
E|----0---0---0----0----0--0--0--
B|----0---3---3----1----1--5--0--
G|----0---0---0----0----0--0--0--
D|----2---0---2----2----2--4--2-- x 2
A|----2---2---3----0----3--5--2--
E|----0---3-------------------0--
tabs and chords, guitar tabs, music transcription, music technology, deep learning, music information retrieval, transcribe into tabs & chords, chordify, music renditions, songsterr, reverbnation, tabulature, bollywood chords, ultimate guitar, yousician, guitar lessons, acoustic guitar, electric guitar, guitar tuner, 911 tabs