Guitar Tabs for Anamika Tu Bhi Tarse

(/) Slide Up  (\) Slide Down  (h) Hammer On  (p) Pull Off  (b) Bend (r) Release (v) Vibrato (x) Muted

Tabs & Chords
BPM : 110.0
Check Track 2 for Chord Positions 

             A                 G                       A                    E           Am    
E|--0-----------------------0--------------0--------0-----------0-----------0-----------------
B|--------------------------------------------------------------------------------------12----
G|-----------14-14-14-14----------12-12-------------------14----------------------13-------14-
D|-----15----------------------15-------15----12-------15----15----12-12-12----15-------------
A|--------------------------------------------------------------------------------------------
E|--------------------------------------------------------------------------------------------

          A     G                             F                 A                             
E|--------------------0--------------0--------0-----------0-----------0-----0-----0-----------
B|--13----12----------------------------------------------------------------------------------
G|-----------14-14----------12-12-------------------14----------------------------------14-14-
D|-----------------------15-------15----12-------15----15----12-12-12----15----------15-------
A|--------------------------------------------------------------------------------------------
E|--------------------------------------------------------------------------------------------

       Am       G                 Am    G                 A     G                 A        G  
E|--------------------------------------------------------------------------------------------
B|--------------13-12----12-------------12-13----13-12----------12-13----13-12----------12-13-
G|--14-14-14----------------14----14-14-------14----------14-14-------14----------14----------
D|--------------------------------------------------------------------------------------------
A|--------------------------------------------------------------------------------------------
E|--------------------------------------------------------------------------------------------

             C              A                 G                       F                       E  
E|--------------------------12-------------------------------------------------------------------
B|--15----13----12----13----------12-12-12----12-12-15----12----------------13-13-12-------------
G|-----------14----------------------------------------------14-14----14-14----------14-14----14-
D|-----------------------------------------------------------------------------------------------
A|-----------------------------------------------------------------------------------------------
E|-----------------------------------------------------------------------------------------------

                   A                          G                       A                       
E|-----------------0-----------------------0--------------0--------0-----------0-----------0--
B|-----------12-------------------------------------------------------------------------------
G|--13-14----------------14-14-14-14-14----------12-12-------------------14-------------------
D|--------------------15----------------------15-------15----12-------15----15----12-12-12----
A|--------------------------------------------------------------------------------------------
E|--------------------------------------------------------------------------------------------

    E           A                    G           
E|-----0-----0-----------------------20----------
B|-----------------------------------------12----
G|-----------------14-14-14-14-14-------------14-
D|--15----------15-------------------------------
A|-----------------------------------------------
E|-----------------------------------------------

Guitar Tabs for Anamika Tu Bhi Tarse






             A                 G                       A                    E           Am    
E|-----------0-----------------3-----------------------0--------------------0-----------0-----
B|-----------2-----------------3-----------------------2--------------------0-----------1-----
G|-----------2-----------------4-----------------------2--------------------1-----------2-----
D|-----------2-----------------5-----------------------2--------------------2-----------2-----
A|-----------0-----------------5-----------------------0--------------------2-----------0-----
E|-----------------------------3--------------------------------------------0-----------------

          A     G                             F                 A                             
E|--------0-----3-----------------------------1-----------------0-----------------------------
B|--------2-----3-----------------------------1-----------------2-----------------------------
G|--------2-----4-----------------------------2-----------------2-----------------------------
D|--------2-----5-----------------------------3-----------------2-----------------------------
A|--------0-----5-----------------------------3-----------------0-----------------------------
E|--------------3-----------------------------1-----------------------------------------------

       Am       G                 Am    G                 A     G                 A        G  
E|-----0--------3-----------------0-----3-----------------0-----3-----------------0--------3--
B|-----1--------3-----------------1-----3-----------------2-----3-----------------2--------3--
G|-----2--------4-----------------2-----4-----------------2-----4-----------------2--------4--
D|-----2--------5-----------------2-----5-----------------2-----5-----------------2--------5--
A|-----0--------5-----------------0-----5-----------------0-----5-----------------0--------5--
E|--------------3-----------------------3-----------------------3--------------------------3--

             C              A                 G                       F                       E  
E|-----------0--------------0-----------------3-----------------------1-----------------------0--
B|-----------1--------------2-----------------3-----------------------1-----------------------0--
G|-----------0--------------2-----------------4-----------------------2-----------------------1--
D|-----------2--------------2-----------------5-----------------------3-----------------------2--
A|-----------3--------------0-----------------5-----------------------3-----------------------2--
E|--------------------------------------------3-----------------------1-----------------------0--

                   A                          G                       A                       
E|-----------------0--------------------------3-----------------------0-----------------------
B|-----------------2--------------------------3-----------------------2-----------------------
G|-----------------2--------------------------4-----------------------2-----------------------
D|-----------------2--------------------------5-----------------------2-----------------------
A|-----------------0--------------------------5-----------------------0-----------------------
E|--------------------------------------------3-----------------------------------------------

    E           A                    G           
E|--0-----------0--------------------3-----------
B|--0-----------2--------------------3-----------
G|--1-----------2--------------------4-----------
D|--2-----------2--------------------5-----------
A|--2-----------0--------------------5-----------
E|--0--------------------------------3-----------

tabs and chords, guitar tabs, music transcription, music technology, deep learning, music information retrieval, transcribe into tabs & chords, chordify, music renditions, songsterr, reverbnation, tabulature, bollywood chords, ultimate guitar, yousician, guitar lessons, acoustic guitar, electric guitar, guitar tuner, 911 tabs