Guitar Tabs for Alice In Wonderland D

(/) Slide Up  (\) Slide Down  (h) Hammer On  (p) Pull Off  (b) Bend (r) Release (v) Vibrato

Tabs for Song : 

Song lyrics here
E|-----------5-----3--------------------------2--3--2-----0--2--------------------
B|--------------------7-----3--------------5-----------3-----------3--------------
G|--2--1--2--------3--------5-----4--------4-----------3--------------2-----------
D|--------------------------4--------------------------2--------------------------
A|-----------0--------5--------------------4-----------------2--4-----------------
E|--0-----------------------4-----3-----------------2-----------------1-----------

E|--0--2--3--2-----0--2-----5--10----7-----5--3-----3-----------
B|--------------4--------3-----10-------------------------2--3--
G|--------------6--------3-----8--------------3--------4--3-----
D|-----0--------5--------2-----------------------0--4-----5-----
A|-----------0-----------------------------0--------------------
E|--0-----------------2--------------------------------6--5-----

E|--------------------------5-----3--------------------2--3--2--------2--------------------0--
B|-----------------------------4-----7--3-----------5-----------3--5-----------3--------------
G|--------2--------2--------------3--5--5-----4-----4-----------3-----------2-----2-----------
D|-----4-----4-----------0-----3--------4-----4-----------------2--------4--------------1-----
A|--0-----------0-----0-----0--------5--------5-----4-----------------2--------------3--------
E|-----------------0--------------------4-----3--------------2--------------------1--------0--

E|-----------2--3--2-----0--2-----5--10-7--5-----------3--------------------------------0--
B|--------------------2--------3-----10----------------------------2--3-----------------3--
G|--------0-----------3--------3-----8--7-----------0-----4--------3-----------2--------4--
D|-----4--------------5--------2--------7--------4-----------6-----5--------4-----4-----5--
A|--5--------------2--------------------6-----5--------------------------0-----------0-----
E|--------------------------2--------------0--------------6-----5--------------------------

E|--7--------5-----------------0--2--3--5-----7--9-----5-----------4--------10-------9-----------
B|--4--------5--------3--------3--------4-----6-----------7--------------------------------10-7--
G|--6--------4--------4--------4--------3-----6--9-----6--------------------------9--9--------8--
D|--5--------4--------4-----------------3-----5-----------------4--------4-----9--------------7--
A|-----0--0-----0--0--0--0--0--0--0-----0--0-----0--0--------0--------5-----8-----------9--------
E|-----------------------------------------------------------------4--------------------------7--

E|--7-----5--3--2--0--------------------------5-----3--------------------2--3--2--------
B|-----------------------------2--------------4--------7-----3--------5-----------3--5--
G|-----0--------------------3--------3--2-----3--3--------5--5--4-----4-----------3-----
D|-----0-----------------4--------5-----------3-----------5--4--4-----------------2-----
A|-----------------0--5--------------------0--0--------5-----------5--4-----------------
E|--0--------3--4-----------------------0--------------------4--3--------------2--------

E|--2-----------------0--2--3--2--------0--2-----5-----10-7--5--------3--------------------
B|--------3-----------0-----------------------3--------10----------------0--2--3-----------
G|-----------2--------0--------------3--------3--------8--7-----------3-----3-----2--2-----
D|-----4-----------0--------------5-----------2--------7--7--------4--------5-----4--4-----
A|--------------3--------------2--------------------------6-----5-----------0--0--------0--
E|--2--------1--------0--------------------2--------7--------0-----------------------------

E|--------7-----------5--------------------5-----3--------------3-----2--------------------------------
B|-----------------------8--7-----------------------5--------------------5-----3--2--------------------
G|--2--2-----0-----6-----------4--------4--------------4--------3--------------------2-----------------
D|--4--4-----4-----5-----------4--------4--------------5--------2-----------------------------1--------
A|--------------------------7-----0-----------------4-----4--------------2--4--------------3-----------
E|--------0-----5--------------------3--------3--------------2-----2--------------------1--------0--0--

E|--5--3--2--0-----------2-----5--------12----10----7--5--------------
B|--------------3--2--3--------------------------------------------5--
G|--------------------------2--------7--------------0-----6-----6-----
D|--------------------------2--------7--------------4-----5-----5-----
A|-----------0-----------------------------------------------0--------
E|-----------------------2--------7--------7-----0--------------------

E|--
B|--
G|--
D|--
A|--
E|--

Song lyrics here
E|--
B|--
G|--
D|--
A|--
E|--

Add more lines by placing cursor below and adding notes
tabs and chords, guitar tabs, music contests, music covers, songsterr, reverbnation, renditions, tabulature, bollywood chords, ultimate guitar, yousician, guitar lessons, torrins, fender, gibson, acoustic guitar, electric guitar, youtube covers, gootar, guitar tuner, A-Z tabs, 911 tabs