Bass Tabs for Alice In Wonderland

(/) Slide Up  (\) Slide Down  (h) Hammer On  (p) Pull Off  (b) Bend (r) Release (v) Vibrato (x) Muted

Tabs for Song : 

Song lyrics here
G|-----12-------------------------------------------------------12-17-14-12----------12-
D|--------15-14-------12-14-15-14-12-14-------12-14-15-14-12-14-------------15-14-12----
A|--------------15----------------------15----------------------------------------------
E|--15-------------15----------------------15-------------------------------------------

G|-----------14-12-------------12-14-16-12-------17-16-12----14-12----------------
D|--------12----------12-14-15-------------14-16----------14-------15-14-12-------
A|--15-16----------15-------------------------------------------------------15-14-
E|--------------------------------------------------------------------------------

tabs and chords, guitar tabs, music transcription, music technology, deep learning, music information retrieval, transcribe into tabs & chords, chordify, music renditions, songsterr, reverbnation, tabulature, bollywood chords, ultimate guitar, yousician, guitar lessons, acoustic guitar, electric guitar, guitar tuner, 911 tabs