Guitar Tabs for Winter Wonderland

(/) Slide Up  (\) Slide Down  (h) Hammer On  (p) Pull Off  (b) Bend (r) Release (v) Vibrato (x) Muted

Tabs for Song : 
BPM : 200

Song lyrics here
E|-----------------------------------------
B|--------7-----7--------------------6--7--
G|--8--9-----9-----8--6--5--6--8--9--------
D|-----------------------------------------
A|-----------------------------------------
E|-----------------------------------------

Song lyrics here
E|--8--8--7--8--6-----6-----
B|-----------------10----9--
G|--------------------------
D|--------------------------
A|--------------------------
E|--------------------------

E|--------------------------------------------------
B|-----6--8--8--8--6-----------4--------------6--8--
G|--8-----------------9--8--5-----6-----------------
D|--------------------------------------------------
A|--------------------------------------------------
E|--------------------------------------------------

E|-----------------------------
B|-----6--8--8-----6--6--------
G|--8-----------8--------8--8--
D|-----------------------------
A|-----------------------------
E|-----------------------------

E|-----------------4--------4--
B|--8--6--------6-----6--------
G|--------8--6-----------------
D|-----------------------------
A|-----------------------------
E|-----------------------------

E|-----------------------------------------------4--
B|--------------------------6-----6--6--6--6--6-----
G|--8-----8--8--8-----6--8--------------------------
D|--------------------------------------------------
A|--------------------------------------------------
E|--------------------------------------------------

E|--------------------------------------4--------
B|--------------------------6-----7--------7--6--
G|--4--5--7--6--7--5--7--8-----------------------
D|-----------------------------------------------
A|-----------------------------------------------
E|-----------------------------------------------

E|--------------------------------------
B|--------------------------------6--7--
G|-----------7--7--7--7--7--7--9--------
D|--7--9--10----------------------------
A|--------------------------------------
E|--------------------------------------

E|-----------------------------------------------------------
B|--6-----6--------6--------------7-----7--------9--8--8--9--
G|-----8-----7--8--------8--6--8-----9--------8--------------
D|-----------------------------------------------------------
A|-----------------------------------------------------------
E|-----------------------------------------------------------

E|-----------------------------------------------------------------------------
B|--6--8--8--6--8--8-----6--8--8--6--8--8-----8--8--------6--7-----------6--8--
G|-----------------------------------------------------8--------------9--------
D|-----------------------------------------------------------------------------
A|-----------------------------------------------------------------------------
E|-----------------------------------------------------------------------------

E|-----------------------------
B|-----6--8--8-----6--6--------
G|--8-----------8--------8--8--
D|-----------------------------
A|-----------------------------
E|-----------------------------

E|-----------------4--------4--------
B|--8--6--------6-----6--8-----7--6--
G|--------8--7-----------------------
D|-----------------------------------
A|-----------------------------------
E|-----------------------------------

E|-----------------------
B|--------------6--7--8--
G|--8--8-----8-----------
D|-----------------------
A|-----------------------
E|-----------------------

Paste any tab in acousterr's tab maker and we'll play it !!!
Now supports capo and sound effects for vibrato/pull-off/hammer/bends/mutes etc !!! Checkout help section
tabs and chords, guitar tabs, music transcription, music technology, deep learning, music information retrieval, transcribe into tabs & chords, chordify, music renditions, songsterr, reverbnation, tabulature, bollywood chords, ultimate guitar, yousician, guitar lessons, acoustic guitar, electric guitar, guitar tuner, 911 tabs