Guitar Tabs for A Whole New World

A Whole New World
BPM : 270 capo 2

    C        F              C                       C                       F           G
E|--0--------1-----0--------------------0-----------0--------1-----0--------0-----------------------
B|--------3-----------1-----------------------3-----------3-----------1-----------------3-----------
G|--------------------------0--------0--------------------------------------------------------------
D|--------------------------------2-----------------------------------------------------------------
A|--3-----------------------3-----------------------3-----------------------------------------------
E|--------------------------------------------------------------------------1-----------3-----------

    Em       E              Am                      F                    C
E|-----------0-----------------------------------------------------------------------0-----------
B|--3-----2--------3-----0--3-----1-----0-----1-----------0--3-----1-----------------------3-----
G|--------------------------------------------------2--------------------0--------0--------------
D|-----------------------------------------------------------------------------2-----------------
A|-----------2--------------0--------------------------------------------3-----------------------
E|--0-----------------------------------------------1--------------------------------------------

    C        F              C                       C                       F           G
E|--0--------1-----0--------------------0-----------0--------1-----0--------0-----------------------
B|--------3-----------1-----------------------3-----------3-----------1-----------------3-----------
G|--------------------------0--------0--------------------------------------------------------------
D|--------------------------------2-----------------------------------------------------------------
A|--3-----------------------3-----------------------3-----------------------------------------------
E|--------------------------------------------------------------------------1-----------3-----------

    Em       E              Am                      F                    C
E|-----------0-----------------------------------------------------------0-----------0--1-----5-----
B|--3-----2--------3-----0--3-----1-----0-----1-----------0--3-----1--------------------------------
G|--------------------------------------------------2-----------------------------------------------
D|--------------------------------------------------------------------------------------------------
A|-----------2--------------0--------------------------------------------3--------------------------
E|--0-----------------------------------------------1-----------------------------------------------

    
E|--3-----------------------0--------0--1-----5-----3--------1--------0--0--------------0--------1--------3--
B|--------------0-----------1-----------------------------3-----------------------------1--------0--------0--
G|--------0-----------0-----0-----0--------------------------------------------------------------------------
D|--------------------------2--------------------------------------------------------------------------------
A|--------------------------3-----------------------------------0-----------3-----------3--------------------
E|--3-----------------------------------------------3--------------------------------------------------------

E|--7-----5-----3-----------7-----8-----3-----------0--------------------------------0--1-----5-----
B|-----------------------1-----------------------1--1-----3-----1-----------1--3--------------------
G|--------------------------------------------------2-----------2-----2-----------------------------
D|--------------------------------------------------2-----------0-----------------------------------
A|--8-----------3-----------8-----------3-----------0-----------------------------------------------
E|--------------------------------------------------------------------------3-----------------------

E|--3-----------------------0--------0--1-----5-----3--------1--------0--0--------------0--------1--------3--
B|--------------0-----------1-----------------------------3-----------------------------1--------0--------0--
G|--------0-----------0-----0-----0--------------------------------------------------------------------------
D|--------------------------2--------------------------------------------------------------------------------
A|--------------------------3-----------------------------------0-----------3-----------3--------------------
E|--3-----------------------------------------------3--------------------------------------------------------

E|--7-----5-----3-----------7-----8-----3-----------0-----------------------1-----0-----------------
B|-----------------------1-----------------------1--1-----3-----1-----3-----3-----------1-----0-----
G|--------------------------------------------------2-----------2-----------3-----------------------
D|--------------------------------------------------2-----------0-----------3-----------------------
A|--8-----------3-----------8-----------3-----------0-----------------------1-----------------------
E|--------------------------------------------------------------------------------------3-----------

E|--------------0-----------1-----0-----5-----3-----   UDAH DE ULANG LAGI HWHWHHWh
B|--1-----3-----------3-----------------------------
G|--0-----------------------------------------------
D|--2-----------------------------------------------
A|--3-----------------------------------------------
E|--------------------------------------------------
tabs and chords, guitar tabs, music transcription, music technology, deep learning, music information retrieval, transcribe into tabs & chords, chordify, music renditions, songsterr, reverbnation, tabulature, bollywood chords, ultimate guitar, yousician, guitar lessons, acoustic guitar, electric guitar, guitar tuner, 911 tabs