Guitar Tabs for A Whole New World

(/) Slide Up  (\) Slide Down  (h) Hammer On  (p) Pull Off  (b) Bend (r) Release (v) Vibrato (x) Muted

Tabs for Song : 
BPM : 200

Song lyrics here 
E|--2--0--3--2-----------2--0--3--2--------2-----0-----0-----2--0-----0-----------
B|--------------3--------------------3--------------------4--------2-----3--2--3--
G|-----------------2--2-----------------------------------------------------------
D|--------------------------------------------------------------------------------
A|--------------------------------------------------------------------------------
E|--------------------------------------------------------------------------------

E|--------0--------------2--0--3--2-----------2--0--3--2--------2-----0-----0--
B|--0--2-----3-----------------------3--------------------3--------------------
G|--------------2--2--------------------2--------------------------------------
D|-----------------------------------------------------------------------------
A|-----------------------------------------------------------------------------
E|-----------------------------------------------------------------------------

E|--0-----2--0-----0--------------------0-----2--------2--3--7-----5-----------
B|-----4--------2-----3--2--3-----0--2-----3-----------------------------5-----
G|--------------------------------------------------------------------6-----6--
D|-----------------------------------------------------------------------------
A|-----------------------------------------------------------------------------
E|-----------------------------------------------------------------------------

E|-----------7-----5-----3--2--2-----2--3--5-----9--7--5-----9--10----------------------
B|-----7--8-----------5--------------------------------------------10-------7--5-----0--
G|--7-----------------------------------------------------7--------------7--------7-----
D|--------------------------------------------------------------------------------------
A|--------------------------------------------------------------------------------------
E|--------------------------------------------------------------------------------------

E|-----0--------7--5--------2--3-----7-----5-----3--2--2--------2--3--5-----9--7--5-----
B|--------7--8--------------------------------5-----------------------------------------
G|--7--------------------------------------------------------------------------------7--
D|--------------------------------------------------------------------------------------
A|--------------------------------------------------------------------------------------
E|--------------------------------------------------------------------------------------

E|--9--10----------------------3--2--------------------------------0--------5--3--6--5--------
B|--------10----7--5-----5-----------3--2-----3-----------0-----------3--1--------------6-----
G|-----------7--------7-----------------------------0-----------2--------------------------5--
D|-----------------------------------------------------4--------------------------------------
A|--------------------------------------------------------------------------------------------
E|--------------------------------------------------------------------------------------------

E|--5-----3--6-----5--------5--------3-----------3--2--5--3--0-----3--1-----0--1--------0--3--1--5--
B|--------------------6--------------------------------------------------------------3--------------
G|--------------------------------------------------------------------------------------------------
D|--------------------------------------------------------------------------------------------------
A|--------------------------------------------------------------------------------------------------
E|--------------------------------------------------------------------------------------------------

E|--5-----6-----10-------8--------------------------------10----8-----6--5--5-----5--6--8-----12-10-8-----
B|--------------------------10-10-11-10-------------10-11----------8--------------------------------------
G|--------------------------------------10-------------------------------------------------------------10-
D|-----------------------------------------10-10----------------------------------------------------------
A|--------------------------------------------------------------------------------------------------------
E|--------------------------------------------------------------------------------------------------------

E|--12-10-8--------------------6--5-----------------5--5--5--3--1--------------5--6--10----8-----6--
B|--------------10-8-----8--------------------------------------------1-----------------------8-----
G|-----------10-------10-------------------7-----5--------------------------------------------------
D|-----------------------------------7--7-----------------------------------------------------------
A|--------------------------------------------------------------------------------------------------
E|--------------------------------------------------------------------------------------------------

E|--5--3--1--------5--6--8--------12-10-8--13-12-13----------------------------------------------------
B|--------------------------------------------------13----------------11-10----8-----------------------
G|--------------------------------------------------------14-12-10-12-------10-------10-------------7--
D|--------------------------------------------------------------------------------------------7--8-----
A|-----------------------------------------------------------------------------------------------------
E|-----------------------------------------------------------------------------------------------------

E|-----------5--6--10----8--------------------5--6--10----8-----------------------------------------
B|--------------------------------------------------------------------------------------------------
G|--5-----------------------------7-----5--------------------------0-----------2-----0--3-----2-----
D|--------------------------7--8--------------------------------7--------3-----------------------3--
A|--------------------------------------------------------------------------------------------------
E|-----------------------------------------------------------8--------------------------------------

E|--5--3--6--5-----
B|--------------6--
G|-----------------
D|-----------------
A|-----------------
E|-----------------



Use manual mode to free up cursor. Paste any tab in acousterr tab maker and we'll play it !!!
tabs and chords, guitar tabs, music transcription, music technology, deep learning, music information retrieval, transcribe into tabs & chords, chordify, music renditions, songsterr, reverbnation, tabulature, bollywood chords, ultimate guitar, yousician, guitar lessons, acoustic guitar, electric guitar, guitar tuner, 911 tabs