Guitar Tabs for A Whole New World

(/) Slide Up  (\) Slide Down  (h) Hammer On  (p) Pull Off  (b) Bend (r) Release (v) Vibrato (x) Muted

Tabs for Song : 
BPM : 200

Song lyrics here 
E|-----------------------------------------------------------------------------------------------------------------
B|-----------0-----------1--------------0-----------1-----0--------0-----------0--0--------1-----0-----0-----------
G|--------2-----------2-----2--------2-----------2-----2--------2-----------0-----------2-----------0--------0--2--
D|-----0-----------0--------------0-----------0--------------0-----------0-----------0--------------------2-----0--
A|--------------------------------------------------------3-----------------------------------3--------------------
E|--3-----------3--------------3-----------3--------------------------3-----------3--------------------0-----------

E|--------------------------------------------------------------------------------------------------------------------------
B|--------0-----------------------------------------------------0--0--------1-----0--------0--------1-----0-----0-----------
G|--2--0--------2------0h2--0-----0---------0h2--0-----------0-----------2-----------0-----------2-----------0--------0--2--
D|--2--------------4-----------4-----2--4-----------0-----0-----------0-----------------0-----0--------------------2-----0--
A|--0--------2-----------------5-----3-----------------------------------------3-----------------------3--------------------
E|-----------------------0-----------------------------3-----------3-----------------------3--------------------0-----------

E|-----------------------------------------------------------------------------------------------------------------------------
B|--------0-----------------------------------------0-----------0--1------3\5--3--------------------------------0--1------3\5--
G|--2--0--------2------0h2--0-----0---------0h2--0-----------0--------0--------------0-----------0-----------0--------0--------
D|--2--------------4-----------4-----2--4-----------------0-----------------------4-----4-----0-----0-----0--------------------
A|--0--------2-----------------5-----3-----------------------------------------5-----------------------------------------------
E|-----------------------0-----------------------------3-----------------------------------0-----------3-----------------------

E|-----------------------------------------2-----0--------------2--3--------------------------------------------------------
B|--3-----1-----0--0--------------0--1--3-----------3-----------------3--------0--0-----------------0--------0--1------3\5--
G|-----2--------------------0-----------------0-----------0--0--------------0-----------2--0--------------2--------0--------
D|--0--------1-----------2-----2-----------3-----------------------------------------2-----------2-----0--------------------
A|-----------------------------------0--2--------------2--------3--------2--------------------0-----------------------------
E|--------------------0-----------3-----------------------------------------------0-----------------------------------------

E|-----------------------------------------------------------------------------------------2-----0--------------2--3--------
B|--3--------------------------------0--1------3\5--3-----1-----0--0--------------0--1--3-----------3-----------------3-----
G|--------0-----------0-----------0--------0-----------2--------------------0-----------------0-----------0--0--------------
D|-----4-----4-----0-----0-----0--------------------0--------1-----------2-----2--------------------------------------------
A|--5--------------------------------------------------------------------------------0--2--3-----------2--------3--------2--
E|--------------0-----------3-----------------------------------------0-----------3-----------------------------------------

E|-----------------------------------------------------------------------------------------------------------
B|-----0--0-----------------1--------0--3-----------------------0-----------1--------------0-----------1-----
G|--0-----------2--0--------------0-----------0---0h2--0-----0-----------2-----2--------2-----------2-----2--
D|-----------2-----------2-----3-----------0--------------0-----------0--------------0-----------0-----------
A|--------------------0--------------------------------------------------------------------------------------
E|--------0--------------------------------------------3-----------3--------------3-----------3--------------

E|--------------------------------------------------------------------------------------------------------------------------
B|--0--------1-----0-----------------0--0--------1-----0-----0-----------------0-----------------------------------------0--
G|--------2-----------0-----------0-----------2-----------0--------0--2--2--0--------2------0h2--0-----0---------0h2--0-----
D|-----0-----------------0-----0-----------0--------------------2-----0--2--------------4-----------4-----2--4--------------
A|--------------3-----------------------------------3--------------------0--------2-----------------5-----3-----------------
E|--3-----------------------3-----------3--------------------0--------------------------------------------------------------

E|-----------------------------------------------------------------------------------------------------------------
B|-----------0--1------3\5--3--------------------------------0--1------3\5--3-----1-----0--0--------------0--1--3--
G|--------0--------0--------------0-----------0-----------0--------0-----------2--------------------0--------------
D|-----0-----------------------4-----4-----0-----0-----0--------------------0--------1-----------2-----2-----------
A|--------------------------5--------------------------------------------------------------------------------0--2--
E|--3-----------------------------------0-----------3-----------------------------------------0-----------3--------

E|--2-----0--------------2--3--------------------------------------------------------------------------------------------------------
B|-----------3-----------------3--------0--0-----------------0--------0--1------3\5--3--------------------------------0--1------3\5--
G|-----0-----------0--0--------------0-----------2--0--------------2--------0--------------0-----------0-----------0--------0--------
D|--------------------------------------------2-----------2-----0-----------------------4-----4-----0-----0-----0--------------------
A|--3-----------2--------3--------2--------------------0-----------------------------5-----------------------------------------------
E|-----------------------------------------0-----------------------------------------------------0-----------3-----------------------

E|-----------------------------------------2-----0--------------2--3-----------------------------------------------------------
B|--3-----1-----0--0--------------0--1--3-----------3-----------------3--------0--0-----------------1--------0--3--------------
G|-----2--------------------0-----------------0-----------0--0--------------0-----------2--0--------------0-----------0---0h2--
D|--0--------1-----------2-----2-----------------------------------------------------2-----------2-----3-----------0-----------
A|-----------------------------------0--2--3-----------2--------3--------2--------------------0--------------------------------
E|--------------------0-----------3-----------------------------------------------0--------------------------------------------

E|-----------------------------------------------------------
B|-----------0-----------1--------------0-----------1-----0--
G|--0-----0-----------2-----2--------2-----------2-----2--2--
D|-----0-----------0--------------0-----------0-----------0--
A|-----------------------------------------------------------
E|--3-----------3--------------3-----------3--------------3--
tabs and chords, guitar tabs, music transcription, music technology, deep learning, music information retrieval, transcribe into tabs & chords, chordify, music renditions, songsterr, reverbnation, tabulature, bollywood chords, ultimate guitar, yousician, guitar lessons, acoustic guitar, electric guitar, guitar tuner, 911 tabs