Guitar Tabs for Afreen Afreen


Aisa dekha naheen khoob-soorat koyi
D|-----------------------------------------------------
A|-----------------------------------------------------
F|--2--1------2h4--4--4-----1--2---4/6---4/9--7--6-----
C|--------2--------------------------------------------
G|-----------------------------------------------------
D|-----------------------------------------------------


Jism jaise ajanta ki moorat koyi
D|--------------------------------------------------
A|--------------------------------------------------
F|--2--1------2h4--4---4/6--1--2---4/6---4/9--7--6--
C|--------2-----------------------------------------
G|--------------------------------------------------
D|--------------------------------------------------


Jism jaise nigaahon pah jaadu koyi
D|-----------------------------------------------------
A|---------------------------------------3h-5p3--------
F|-----2--1--2---2/6--6--6---6\4--4--4-----------6--6--
C|-----------------------------------------------------
G|-----------------------------------------------------
D|-----------------------------------------------------


Jism naghmah koyi
Jism khush-bu koyi
D|-----------------------------------------------------
A|-----------------------------------------------------
F|-----2--1--2---2/6--6--6-----6--4--4---4/9--7--6-----
C|-----------------------------------------------------
G|-----------------------------------------------------
D|-----------------------------------------------------


Jism jaise mahakti hui chaandani
D|--------------------------------------------------
A|------------5/7--7--7-----7---------5h-7p5--5--5--
F|--6--7--4--------------------7--7-----------------
C|--------------------------------------------------
D|--------------------------------------------------
G|--------------------------------------------------


Jism jaise machalti hui raagini
D|--------------------------------------------------------
A|---------------5/7--7--7---7/10-7------5h-7p5--5--5-----
F|-----6--7--4-----------------------7--------------------
C|--------------------------------------------------------
D|--------------------------------------------------------
G|--------------------------------------------------------



Jism jaise keh khilta hua ik chaman
D|-----------4--5---4h-5p4-----------------------------
A|--5--5--5-----------------7---------5h-7p5--5--5-----
F|-----------------------------7--7--------------------
C|-----------------------------------------------------
D|-----------------------------------------------------
G|-----------------------------------------------------



Jism jaise keh sooraj ki pahli kiran
D|-----------4--5---5h-7p5-----------------------------
A|--5--5--5-----------------7---------5h-7p5--5--5-----
F|-----------------------------7--7--------------------
C|-----------------------------------------------------
D|-----------------------------------------------------
G|-----------------------------------------------------



Jism tarsha huwa dil-kash o dil-nisheen
D|--------------------------------------------------
A|--5--5---5/10-10-10-10----12-9--10----10-10-10----
F|--------------------------------------------------
C|--------------------------------------------------
D|--------------------------------------------------
G|--------------------------------------------------


Sandaleen sandaleen
Marmareen marmareen
D|--------------------------------------------------------------
A|--9--9--9---9/12-10-----------------5h-7p5--------------------
F|--------------------11----7--7--7-----------6--4--------------
C|--------------------------------------------------------------
D|--------------------------------------------------------------
G|--------------------------------------------------------------


Husn-e jaanaan ki ta‘reef mumkin naheen
D|-----------------------------------------------------
A|--------------2--3---2h-3p2--------------------------
F|--2--1---1h2-----------------4------1h2--2--2--2-----
C|--------------------------------4--------------------
D|-----------------------------------------------------
G|-----------------------------------------------------


Husn-e jaanaan ki ta‘reef mumkin naheen
D|-----------------------------------------------------------
A|-----------------------2--3---2h-3p3-----------------------
F|---1h-2p1-----1---1h2-----------------4------1h2--2--2--2--
C|-----------4-----------------------------4-----------------
D|-----------------------------------------------------------
G|-----------------------------------------------------------



Aafireen aafireen
Aafireen aafireen
D|--------------------------------------------------
A|--2--3------3/5--5--5-----5--5---5h7-----5--5-----
F|--------4-----------------------------7-----------
C|--------------------------------------------------
D|--------------------------------------------------
G|--------------------------------------------------



Tu bhi dekhe agar to kahe ham-nasheen
D|--------------------------------------------------
A|--5--5---5h7--7-----5-----5--5---5h7-----5--------
F|-----------------7--------------------7-----6-----
C|--------------------------------------------------
D|--------------------------------------------------
G|--------------------------------------------------



Aafireen aafireen
Aafireen aafireen
D|-----------4--5---4h-5p4-----------------------------
A|--5--5--5-----------------7--5--3--5---3h-5p3--------
F|-----------------------------------------------4-----
C|-----------------------------------------------------
D|-----------------------------------------------------
G|-----------------------------------------------------





Husn-e jaanaan ki ta‘reef mumkin naheen
D|-----------------------------------------------------------
A|-----------------------2--3---2h-3p2-----------------------
F|---1h-2p1-----1---1h2-----------------4------1h2--2--2--2--
C|-----------4-----------------------------4-----------------
D|-----------------------------------------------------------
G|-----------------------------------------------------------

Play at https://www.acousterr.com/tabmaker
tabs and chords, guitar tabs, music contests, music covers, songsterr, reverbnation, renditions, tabulature, bollywood chords, ultimate guitar, yousician, guitar lessons, torrins, fender, gibson, acoustic guitar, electric guitar, youtube covers, gootar, guitar tuner, A-Z tabs, 911 tabs