Guitar Tabs for Af



E|-----12-9--------------------------------------14-12-------12/9--9--
B|-----------12--9/10/9--------------------12-14-------14/15----------
G|-----------------------11-9--------12/14----------------------------
D|---------------0/-------------------------------------0/------------
A|-----0--------------------0---------0/----------------------0/---0--
E|--------------------------------------------------------------------






Guitar Tabs for Af



E|--0--0--0--0--0--0--0--0--0--0--0--0--0--0--0--
B|-----------------------------------------------
G|-----------------------------------------------
D|-----------------------------------------------
A|-----------------------------------------------
E|-----------------------------------------------

tabs and chords, guitar tabs, music transcription, music technology, deep learning, music information retrieval, transcribe into tabs & chords, chordify, music renditions, songsterr, reverbnation, tabulature, bollywood chords, ultimate guitar, yousician, guitar lessons, acoustic guitar, electric guitar, guitar tuner, 911 tabs