Guitar Tabs for Ae Watan

Ae watan, watan mere, aabaad rahe tu
E|-----------------------------------7--5--5-----
B|--------5--7--5--7--5--7--5--5--7--------------
G|---5/7-----------------------------------------
D|-----------------------------------------------
A|-----------------------------------------------
E|-----------------------------------------------


Main jahan rahun, jahaan me yaad rahe tu
E|--------5---5/10-9--------------------------------
B|---5/7--------------12-10-9--------9--10-12-10----
G|-----------------------------9--9-----------------
D|--------------------------------------------------
A|--------------------------------------------------
E|--------------------------------------------------


Ae watan… mere watan
E|-----------------------7--5-----------------------------------
B|--------5--7-----7--7-----------------5--7--------5-----------
G|---5/7---------------------------5/7-----------4-----7--7-----
D|--------------------------------------------------------------
A|--------------------------------------------------------------
E|--------------------------------------------------------------


Tu hi meri manzil hai, pehchan tujhi se
E|--------7--7--7--5--7--7-----7--5---7/8--8--8--7--8-----
B|---5/7--------------------------------------------------
G|--------------------------------------------------------
D|--------------------------------------------------------
A|--------------------------------------------------------
E|--------------------------------------------------------


Tu hi meri manzil hai, pehchan tujhi se
E|-----------9--9--9-----9--9-----12-10-9--9--12-10-10----
B|--------10----------12----------------------------------
G|---9/11-------------------------------------------------
D|--------------------------------------------------------
A|--------------------------------------------------------
E|--------------------------------------------------------


Pahunchu main jahaan bhi
Meri buniyad rahe tu
E|-----------12-12-12-10-12-12----12-10-------12-10-10----
B|--------10----------------------------12-10-------------
G|---9/11-------------------------------------------------
D|--------------------------------------------------------
A|--------------------------------------------------------
E|--------------------------------------------------------


Pahunchu main jahaan bhi
Meri buniyad rahe tu
E|-----------9--------------------------------------------------
B|--------10----12-10----9--9--9--9--------9--9--9--10-12-10----
G|---7/9-----------------------------9--------------------------
D|--------------------------------------------------------------
A|--------------------------------------------------------------
E|--------------------------------------------------------------


Ae watan, watan mere, aabaad rahe tu
E|-----------------------------------7--5--5-----
B|--------5--7--5--7--5--7--5--5--7--------------
G|---5/7-----------------------------------------
D|-----------------------------------------------
A|-----------------------------------------------
E|-----------------------------------------------


Main jahan rahun, jahaan me yaad rahe tu
E|--------5---5/10-9--------------------------------
B|---5/7--------------12-10-9--------9--10-12-10----
G|-----------------------------9--9-----------------
D|--------------------------------------------------
A|--------------------------------------------------
E|--------------------------------------------------
tabs and chords, guitar tabs, music transcription, music technology, deep learning, music information retrieval, transcribe into tabs & chords, chordify, music renditions, songsterr, reverbnation, tabulature, bollywood chords, ultimate guitar, yousician, guitar lessons, acoustic guitar, electric guitar, guitar tuner, 911 tabs