Ae Watan - Guitar Tabs

Ae watan, watan mere, aabaad rahe tu
E|-----------------------------------7--5--5-----
B|--------5--7--5--7--7--7--7--7--7--------------
G|---5/7-----------------------------------------
D|-----------------------------------------------
A|-----------------------------------------------
E|-----------------------------------------------


Main jahan rahun, jahaan me yaad rahe tu
E|--------5---5/10-9--------------------------------
B|---5/7--------------12-10-9--------9--10-12-10----
G|-----------------------------9--9-----------------
D|--------------------------------------------------
A|--------------------------------------------------
E|--------------------------------------------------


Ae watan… mere watan
E|-----------------------7--5-----------------------------------
B|--------5--7-----7--7-----------------5--7--------5-----------
G|---5/7---------------------------5/7-----------4-----7--7-----
D|--------------------------------------------------------------
A|--------------------------------------------------------------
E|--------------------------------------------------------------


Tu hi meri manzil hai, pehchan tujhi se
E|--------7--7--7--5--7--7-----7--5---7/8--8--8--7--8-----
B|---5/7--------------------------------------------------
G|--------------------------------------------------------
D|--------------------------------------------------------
A|--------------------------------------------------------
E|--------------------------------------------------------


Tu hi meri manzil hai, pehchan tujhi se
E|-----------9--9--9-----9--9-----12-10-9--9--12-10-10----
B|--------10----------12----------------------------------
G|---9/11-------------------------------------------------
D|--------------------------------------------------------
A|--------------------------------------------------------
E|--------------------------------------------------------


Pahunchu main jahaan bhi
Meri buniyad rahe tu
E|-----------12-12-12-10-12-12----12-10-------12-10-10----
B|--------10----------------------------12-10-------------
G|---9/11-------------------------------------------------
D|--------------------------------------------------------
A|--------------------------------------------------------
E|--------------------------------------------------------


Pahunchu main jahaan bhi
Meri buniyad rahe tu
E|-----------10-9--------------------------------------------------
B|--------10-------12-10----9--9--9-----------9--9--9--10-12-10----
G|---7/9--------------------------------9--------------------------
D|-----------------------------------------------------------------
A|-----------------------------------------------------------------
E|-----------------------------------------------------------------


Ae watan, watan mere, aabaad rahe tu
E|-----------------------------------7--5--5-----
B|--------5--7--5--7--5--7--5--5--7--------------
G|---5/7-----------------------------------------
D|-----------------------------------------------
A|-----------------------------------------------
E|-----------------------------------------------


Main jahan rahun, jahaan me yaad rahe tu
E|--------5---5/10-9--------------------------------
B|---5/7--------------12-10-9--------9--10-12-10----
G|-----------------------------9--9-----------------
D|--------------------------------------------------
A|--------------------------------------------------
E|--------------------------------------------------

Play at https://www.acousterr.com/tab/ae-watan

About Ae Watan : The song is sung by Arijit Singh and Sunidhi Chauhan . Shankar–Ehsaan–Loy composed the music . The music video for the song stars Sehmat Khan (played by Alia Bhatt). Ae Watan won the IIFA Award for Playback Singer (Male and Female) at the 2019 International Indian Film Academy Awards . Gulzar has expressed his belief Ae Wataran should become "the song of our Both "Ae Watan" and "Dilbaro" serve as the title tracks for the film . Ehsaan Noorani of the musical trio Shankar–Ehsaan–Loy described the song It was released in 2018. It was released as part of album Raazi. The genre is patriotic. The track was release in 2018. Ae Watan has a significant contribution from artist(s) Arijit Singh,Sunidhi Chauhan,Sehmat Khan. Its associated with movies - Raazi.

About Arijit Singh - Arijit Singh is an Indian playback singer . He sings predominantly in Hindi and Bengali . He has also performed in various Singh was discovered by filmmaker Sanjay Leela Bhansali and Kumar Taurani . Singh received widespread recognition with the release of "Tum Hi Ho" and "Chahun Main Ya Naa" in 2013 . Arijit Singh was born on 25 April 1987 in Jiaganj, Murshidabad, West Bengal . He studied at Raja Bijay Singh High School and later at the University of Kalyani affiliate . Arijit Singh's music is influenced by genre(s) - filmi pop edm ghazal indian classical.

About Sunidhi Chauhan - Born in Delhi, she began performing in local gatherings at the age of 4 . She made her career debut with the film Shastra (1996) She rose to prominence after recording "Ruki Ruki Ruk Si Zindagi" from Mast (1999) Chauhan received her third Filmfare nomination with the song "Dhoom Machale" from Dhoom (2004) and "Deedar De" from Parineeta and Dus . Chauhan has appeared as a judge on several television reality shows . She has appeared four times in Forbes' Celebrity 100 of India (2012–2015) Sunidhi Chauhan had an affiliation to band(s) - Shastra. Sunidhi Chauhan's music is influenced by genre(s) - pop filmi indian classical music.

About Raazi : Raazi (transl. Willing) is a 2018 Indian spy thriller film directed by Meghna Gulzar . It stars Alia Bhatt and features Vicky Kaushal, Rajit Kapur, Shishir Sharma, and Jaideep Raazi was shot across several locations including Patiala, Nabha, Malerkotla and Doodhpathri . Raazi was released on 11 May 2018 . Made on a budget of ₹35 crore (US$4.9 million) worldwide . It was one of the highest-grossing Indian films featuring a female protagonist .

tabs and chords, guitar tabs, music transcription, music technology, deep learning, music information retrieval, transcribe into tabs & chords, chordify, music renditions, songsterr, reverbnation, tabulature, bollywood chords, ultimate guitar, yousician, guitar lessons, acoustic guitar, electric guitar, guitar tuner, 911 tabs