Guitar Tabs for Ae Kash Ke Hum - Kabhi Haan Kabhi Naa Tabs

(/) Slide Up  (\) Slide Down  (h) Hammer On  (p) Pull Off  (b) Bend (r) Release (v) Vibrato (x) Muted

Tabs for Song : Ae Kash Ke Hum

Ae kaash ke hum hosh mein Ab aane na paaye
E|-----------10-8--10-------8--------------8--------------------
B|---8/10-10-----------8/10----11-10-8--8-----8--8--8--8--8--10-
G|--------------------------------------------------------------
D|--------------------------------------------------------------
A|--------------------------------------------------------------
E|--------------------------------------------------------------

Bas nagmein tere pyaar ke Gaate hi jaaye
E|---------------------8/10-10-10-10p8--12-10-10-8--------10-8-----
B|--11-10-8--8--11-11-------------------------------10-11-------10-
G|-----------------------------------------------------------------
D|-----------------------------------------------------------------
A|-----------------------------------------------------------------
E|-----------------------------------------------------------------

Khilati, mahakati Yeh julfon kee shaam
E|--10/12-10----12-10----12-10-10-12-10-8--
B|-----------10-------10-------------------
G|-----------------------------------------
D|-----------------------------------------
A|-----------------------------------------
E|-----------------------------------------

Hasate, khanakate Yeh hothhon ke jaam
E|---8/10-8-----10-8-----10-8--8--10-------
B|-----------8--------8--------------11-10-
G|-----------------------------------------
D|-----------------------------------------
A|-----------------------------------------
E|-----------------------------------------

Aa zoom ke saath uthhaye
E|--------------------------------
B|---8/10-13-13-13-11-10-8--10-8--
G|--------------------------------
D|--------------------------------
A|--------------------------------
E|--------------------------------

Bas nagmein tere pyaar ke Gaate hi jaaye
E|-----------------------10-8--8--12-10-10-8--------10-8-----
B|--8--------8--8--11-11----------------------10-11-------10-
G|-----10-9--------------------------------------------------
D|-----------------------------------------------------------
A|-----------------------------------------------------------
E|-----------------------------------------------------------
tabs and chords, guitar tabs, music contests, music covers, songsterr, reverbnation, renditions, tabulature, bollywood chords, ultimate guitar, yousician, guitar lessons, torrins, fender, gibson, acoustic guitar, electric guitar, youtube covers, gootar, guitar tuner, A-Z tabs, 911 tabs