Guitar Tabs for Aaye Ho Meri Zindagi Mein - Raja Hindustani Tabs

(/) Slide Up  (\) Slide Down  (h) Hammer On  (p) Pull Off  (b) Bend (r) Release (v) Vibrato (x) Muted

Tabs for Song : Aye Ho Meri Zindagi Mein

Aye Ho Meri Zindagi Me Tum Bahar Banke
E|--------------------------------------------------------
B|--------9--7--9--7-----------------9--7--9--7-----------
G|--9--9--------------9--8--6--8--9--------------9--8--9--
D|--------------------------------------------------------
A|--------------------------------------------------------
E|--------------------------------------------------------

Music
E|--7--7--6--6--------------------------------
B|--------------9--9--7--7--7--9--7-----------
G|-----------------------------------9--8--9--
D|--------------------------------------------
A|--------------------------------------------
E|--------------------------------------------

Aye Ho Meri Zindagi Me Tum Bahar Banke
E|--------------------------------------------------------
B|--------9--7--9--7-----------------9--7--9--7-----------
G|--9--9--------------9--8--6--8--9--------------9--8--9--
D|--------------------------------------------------------
A|--------------------------------------------------------
E|--------------------------------------------------------

Aye Ho Meri Zindagi Me Tum Bahar Banke
E|--------------------------------------------------------
B|--------9--7--9--7-----------------9--7--9--7-----------
G|--9--9--------------9--8--6--8--9--------------9--8--9--
D|--------------------------------------------------------
A|--------------------------------------------------------
E|--------------------------------------------------------

Mere Dil Me Yuhi Rahena Haye E.....
E|-----------11-9--11-9--------------------
B|--12-12-12-------------12-11-12--9/11/9--
G|-----------------------------------------
D|-----------------------------------------
A|-----------------------------------------
E|-----------------------------------------

Mere Dil Me Yuhi Rahena Tum Pyar Pyar Banke
E|-----------11-9--11-9--------------------------------------
B|--12-12-12-------------12-11-12-9--9--7--7--11-11--9p11-7--
G|-----------------------------------------------------------
D|-----------------------------------------------------------
A|-----------------------------------------------------------
E|-----------------------------------------------------------

Aye Ho Meri Zindagi Me Tum Bahar Banke
E|--------------------------------------------------------
B|--------9--7--9--7-----------------9--7--9--7-----------
G|--9--9--------------9--8--6--8--9--------------9--8--9--
D|--------------------------------------------------------
A|--------------------------------------------------------
E|--------------------------------------------------------
tabs and chords, guitar tabs, music transcription, music technology, deep learning, music information retrieval, transcribe into tabs & chords, chordify, music renditions, songsterr, reverbnation, tabulature, bollywood chords, ultimate guitar, yousician, guitar lessons, acoustic guitar, electric guitar, guitar tuner, 911 tabs