Guitar Tabs for Pardesi Pardesi Jana Nahi - Raja Hindustani Tabs

(/) Slide Up  (\) Slide Down  (h) Hammer On  (p) Pull Off  (b) Bend (r) Release (v) Vibrato

Tabs for Song : Pardesi Pardesi Jana Nahi

Pardesi pardesi jaana nahin
E|--6--6--------6--6--------------------
B|--------9--7--------9--7--7--9--7-----
G|-----------------------------------8--
D|--------------------------------------
A|--------------------------------------
E|--------------------------------------

Mujhe chhod ke.. mujhe chhod ke
E|--------------------------------6--6--6-----------
B|-----7---9/10-9--9--10-9--7--9-----------9--7--7--
G|--8-----------------------------------------------
D|--------------------------------------------------
A|--------------------------------------------------
E|--------------------------------------------------

Pardesi mere yaara.. vaada nibhana
E|--9--9--6--9--9--9--9--11----9--11-9-----------
B|--------------------------------------11-10-11-
G|-----------------------------------------------
D|-----------------------------------------------
A|-----------------------------------------------
E|-----------------------------------------------

Mujhe yaad rakhna kahin bhool .. na jaana
E|-----9--9--9--9--11----9--11-12-11-9-----------
B|--11----------------------------------11-9--7--
G|-----------------------------------------------
D|-----------------------------------------------
A|-----------------------------------------------
E|-----------------------------------------------

Repeat Part 1 Again...
tabs and chords, guitar tabs, music contests, music covers, songsterr, reverbnation, renditions, tabulature, bollywood chords, ultimate guitar, yousician, guitar lessons, torrins, fender, gibson, acoustic guitar, electric guitar, youtube covers, gootar, guitar tuner, A-Z tabs, 911 tabs