Guitar Tabs for Aaoge Jab Tum - Jab We Met Tabs

(/) Slide Up  (\) Slide Down  (h) Hammer On  (p) Pull Off  (b) Bend (r) Release (v) Vibrato

Tabs for Song : Aaoge Jab Tum

aaoge jab tum saajna
E|--------------------------------------------
B|--------------------------------------------
G|-----------------------------3--------------
D|--3-----3--3--4--4-----4--4--------4--3-----
A|-----4--------------------------------------
E|--------------------------------------------

aangna phool khilenge
E|-----------------------------------------
B|-----------------------------------------
G|--4--4--3--------4--3--------------------
D|-----------6-----------6-----3--4--4-----
A|-----------------------------------------
E|-----------------------------------------

barsega sawan 
E|--------------------------
B|--------------------------
G|--6--4--3-----3--4--4-----
D|-----------6--------------
A|--------------------------
E|--------------------------

barsega sawan
E|--------------------------
B|--4--5--4--2-----2--2-----
G|--------------4-----------
D|--------------------------
A|--------------------------
E|--------------------------

jhoom jhoom ke
E|-----------------------------------------
B|--4-----2--4--------2--------------------
G|--------------6--4-----3--3--4--3--1-----
D|-----------------------------------------
A|-----------------------------------------
E|-----------------------------------------

do dil ese milenge
E|--------------------------------------
B|--------------------------------------
G|--1--3--4--3--1--1--3--1--------------
D|--------------------------3--4--4-----
A|--------------------------------------
E|--------------------------------------

naina tere kajraare hai
E|--------------------------------
B|--------------------------------
G|-----1--3--1--1-----3--1--1-----
D|--4--------------4--------------
A|--------------------------------
E|--------------------------------

naino pe hum dil haare hai
E|-----------------------------
B|-----------------------------
G|-----1-----------------------
D|--3-----3--------4--4--4-----
A|-----------6--4--------------
E|-----------------------------

anjane hi tere naino ne
E|--------------------------------
B|--------------------------------
G|-----1--3--1--1-----3--1--1-----
D|--4--------------4--------------
A|--------------------------------
E|--------------------------------

vaade kiya kai saare hai
E|-----------------------------
B|-----------------------------
G|-----1-----------------------
D|--3-----3--------4--4--4-----
A|-----------6--4--------------
E|-----------------------------

saanso ki laye madhyam chale
E|--------------------1--------
B|-----2--2--4-----2-----4-----
G|--3-----------3--------------
D|-----------------------------
A|-----------------------------
E|-----------------------------

tose kahe barsega sawan
E|-----------------------------------
B|-----4--4--2-----------------------
G|--3-----------4--3--1--3--4--4-----
D|-----------------------------------
A|-----------------------------------
E|-----------------------------------


Add more lines by placing cursor below and adding notes
tabs and chords, guitar tabs, music contests, music covers, songsterr, reverbnation, renditions, tabulature, bollywood chords, ultimate guitar, yousician, guitar lessons, torrins, fender, gibson, acoustic guitar, electric guitar, youtube covers, gootar, guitar tuner, A-Z tabs, 911 tabs