Guitar Tabs for The Night We Met

Tabs for Song : Night We Met

Intro
E|-----------3--------------2--------------------------------------------------------------------------0-----------------0--------
B|--------------0-----------------------0-----------------0-----------------------------------------1-----1-----------1-----1-----
G|--------0--------0-----2-----------0-----0-----------0-----0--------------0--------------0-----0-----------0-----0-----------0--
D|-----2--------------0-----------0-----------0-----0-----------0--------2-----2--------0-----------------------------------------
A|--------------------------------------------------------------------2-----------2-----------3-----------------3-----------------
E|--0--------------------------3-----------------3-----------------0-----------------3--------------------------------------------


First verse
E|--------------------------------------0-----------------0--------
B|-----------------------------------1-----1-----------1-----1-----
G|-----------0--------------0-----0-----------0-----0-----------0--      4x-
D|--------2-----2--------0-----------------------------------------
A|-----2-----------2-----------3-----------------3-----------------
E|--0-----------------3--------------------------------------------

Chorus
E|-----------3--------------2--------------------------------------------------------------------------0-----------------0--------------
B|--------------0-----------------------0-----------------0-----------------------------------------1-----1-----------1-----1-----------
G|--------0--------0-----2-----------0-----0-----------0-----0--------------0--------------0-----0-----------0-----0-----------0--2x----
D|-----2--------------0-----------0-----------0-----0-----------0--------2-----2--------0-----------------------------------------------
A|--------------------------------------------------------------------2-----------2-----------3-----------------3-----------------------
E|--0--------------------------3-----------------3-----------------0-----------------3--------------------------------------------------

Second verse
E|--------------------------------------0-----------------0-----------------
B|-----------------------------------1-----1-----------1-----1--------------
G|-----------0--------------0-----0-----------0-----------------0-----------
D|--------2-----2--------0-----------------------------------------------4x-
A|-----2-----------2-----------3-----------------3--------------------------
E|--0-----------------3-----------------------------------------------------

Second chorus
E|-----------3--------------2--------------------------------------------------------------------------0-----------------0--------
B|--------------0-----------------------0-----------------0-----------------------------------------1-----1-----------1-----1-----
G|--------0--------0-----2-----------0-----0-----------0-----0--------------0--------------0-----0-----------0-----0-----------0--
D|-----2--------------0-----------0-----------0-----0-----------0--------2-----2--------0-----------------------------------------
A|--------------------------------------------------------------------2-----------2-----------3-----------------3-----------------
E|--0--------------------------3-----------------3-----------------0-----------------3--------------------------------------------

Outro
E|-----------------------------------------0-----------------0--------------
B|--------------------------------------1-----1-----------1-----1-----------
G|-----------0--------------0--------------------0-----0-----------0--------
D|--------2-----2--------0-----------------------------------------------2x-
A|-----2-----------2--------------3-----------------3-----------------------
E|--0-----------------3-----------------------------------------------------








tabs and chords, guitar tabs, music contests, music covers, songsterr, reverbnation, renditions, tabulature, bollywood chords, ultimate guitar, yousician, guitar lessons, torrins, fender, gibson, acoustic guitar, electric guitar, youtube covers, gootar, guitar tuner, A-Z tabs, 911 tabs