Guitar Tabs for Tum Se Hi - Jab We Met Tabs

Tabs for Song : Tum Se Hi

na hai ye pana
E|-----------------------------------
B|-----------1--------------1--3-----
G|--2-----2-----2--0-----2-----------
D|-----------------------------------
A|-----------------------------------
E|-----------------------------------

na khona hi hai
E|--------1-----------------------
B|--3--------3--1-----3--1--------
G|--------------------------2-----
D|--------------------------------
A|--------------------------------
E|--------------------------------

tera na hona jaane 
E|-----------------------------1-----0--------
B|--------------1-----------1-----------3-----
G|-----0--2--2-----2--0--2--------------------
D|--3-----------------------------------------
A|--------------------------------------------
E|--------------------------------------------

kyun hona hi hai
E|--------1-----------------------
B|--3--------3--1-----3--1--------
G|--------------------------2-----
D|--------------------------------
A|--------------------------------
E|--------------------------------

tum se hi din hota hai
E|-----------------------------
B|-----------------------------
G|--0--0--0--0--2--0-----------
D|--------------------3--3-----
A|-----------------------------
E|-----------------------------

surmayi sham aati hai
E|-----------------------------
B|--------------1--------------
G|--0--0--0--2-----2--0--------
D|-----------------------3-----
A|-----------------------------
E|-----------------------------

tum se hi 
E|--------------------
B|--------------------
G|--0-----------------
D|-----3--2-----3-----
A|--------------------
E|--------------------

tum se hi
E|--------------------
B|--------------------
G|--0-----------------
D|-----3--2-----3-----
A|--------------------
E|--------------------


tabs and chords, guitar tabs, music transcription, music technology, deep learning, music information retrieval, transcribe into tabs & chords, chordify, music renditions, songsterr, reverbnation, tabulature, bollywood chords, ultimate guitar, yousician, guitar lessons, acoustic guitar, electric guitar, guitar tuner, 911 tabs