Guitar Tabs for Aaj phir tumpe pyaar aaya hai

Tab for song : Aaj Phir Tum pe Pyaar Aaya Hai

aaj fir tumpe pyaar aya hai

E|--------------0--2--0-----4--2--0--2--0-----------
B|--2-----3--------------------------------3--2-----
G|--------------------------------------------------
D|--------------------------------------------------
A|--------------------------------------------------
E|--------------------------------------------------

aaj fir tumpe pyaar aya hai

E|--------------0--2--0-----4--2--0--2--0-----------
B|--2-----3--------------------------------3--2-----
G|--------------------------------------------------
D|--------------------------------------------------
A|--------------------------------------------------
E|--------------------------------------------------

behad aur beshumaar aya hai

E|--4--2--0--5--2-----------2--0-----2--0-----------
B|-----------------3--3-----------3--------3--2-----
G|--------------------------------------------------
D|--------------------------------------------------
A|--------------------------------------------------
E|--------------------------------------------------

toote to toote teri baahon mein ase

E|--------------------------0--2--0--------------------
B|--2--2--2--0--2-----2--3--------------3--2--0--2-----
G|-----------------------------------------------------
D|-----------------------------------------------------
A|-----------------------------------------------------
E|-----------------------------------------------------

jaise shakho se patte behaya

E|--------2--2--4--5--5--0-----------
B|--2--3--------------------3--2-----
G|-----------------------------------
D|-----------------------------------
A|-----------------------------------
E|-----------------------------------

bikhre tujhi se aur simte tujhi mein

E|--------------------------0--2--0--------------------
B|--2--2--2--0--2-----2--3--------------3--2--0--2-----
G|-----------------------------------------------------
D|-----------------------------------------------------
A|-----------------------------------------------------
E|-----------------------------------------------------

tu hi mera sab le gya

E|--------2--2--4--5--5--0-----------
B|--2--3--------------------3--2-----
G|-----------------------------------
D|-----------------------------------
A|-----------------------------------
E|-----------------------------------

na fikar,na sharam

E|--5--4--5-----5--4--7--5--4--5-----
B|-----------------------------------
G|-----------------------------------
D|-----------------------------------
A|-----------------------------------
E|-----------------------------------

na lihaz,ek baar aaya

E|--5--4--5--2-----0--------0-----------
B|--------------------4--------3--2-----
G|--------------------------------------
D|--------------------------------------
A|--------------------------------------
E|--------------------------------------

phirr zarre zarre mein deedar aaya hai

E|--------0--2--0-----4--2--0--2--0-----------
B|--2--3-----------------------------3--2-----
G|--------------------------------------------
D|--------------------------------------------
A|--------------------------------------------
E|--------------------------------------------

phir zarre zarre mein deedar aaya hai

E|--------0--2--0-----4--2--0--2--0-----------
B|--2--3-----------------------------3--2-----
G|--------------------------------------------
D|--------------------------------------------
A|--------------------------------------------
E|--------------------------------------------

behad aur beshumaar aaya hai

E|--4--2--0--5--2-----------2--0-----2--0-----------
B|-----------------3--3-----------3--------3--2-----
G|--------------------------------------------------
D|--------------------------------------------------
A|--------------------------------------------------
E|--------------------------------------------------

tu hi meri awaragi

E|--1--1--0--1-----1--1--0--3-----
B|--------------------------------
G|--------------------------------
D|--------------------------------
A|--------------------------------
E|--------------------------------

tu hi duaa har shaam ki

E|--------------------------------
B|--0--0-----0-----0--------------
G|--------2-----0-----2-----------
D|-----------------------3--2-----
A|--------------------------------
E|--------------------------------

tu khamakha tu laazami

E|--1--1--0--1-----1--1--0--3-----
B|--------------------------------
G|--------------------------------
D|--------------------------------
A|--------------------------------
E|--------------------------------

tu hi razaa tu hi kami

E|--------------------------------
B|--0--0-----0-----0--------------
G|--------2-----0-----2-----------
D|-----------------------3--2-----
A|--------------------------------
E|--------------------------------

aur tu hi wo firaq hai jisko

E|-----3--1--0--------------------0-----
B|--------------3-----1--3--1--3--------
G|--2-----------------------------------
D|--------------------------------------
A|--------------------------------------
E|--------------------------------------

hai silsilon ne mere pass laya 

E|-----------0--0-----------0-----------------
B|--1--1--3-----------1--1-----3--1-----------
G|-----------------------------------3--2-----
D|--------------------------------------------
A|--------------------------------------------
E|--------------------------------------------

hothon pe tere izhaar laya hai


E|-----------0--0-----0--0--4--2--0--------------
B|--2--2--3--------------------------3--2--2-----
G|-----------------------------------------------
D|-----------------------------------------------
A|-----------------------------------------------
E|-----------------------------------------------

hothon pe tere izhaar laya hai

E|-----------0--0-----0--0--4--2--0--------------
B|--2--2--3--------------------------3--2--2-----
G|-----------------------------------------------
D|-----------------------------------------------
A|-----------------------------------------------
E|-----------------------------------------------


behad aur beshumaar aya hai
E|--4--2--0--5--2-----------2--0-----2--0-----------
B|-----------------3--3-----------3--------3--2-----
G|--------------------------------------------------
D|--------------------------------------------------
A|--------------------------------------------------
E|--------------------------------------------------





tabs and chords, guitar tabs, music transcription, music technology, deep learning, music information retrieval, transcribe into tabs & chords, chordify, music renditions, songsterr, reverbnation, tabulature, bollywood chords, ultimate guitar, yousician, guitar lessons, acoustic guitar, electric guitar, guitar tuner, 911 tabs