Guitar Tabs for Arps

6 string arps:

1) major

E|-----------------12-15-
B|--------------13-------
G|-----------12----------
D|--------14-------------
A|-----15----------------
E|--12-------------------

2) minor 

E|-----------------11-15-
B|--------------13-------
G|-----------12----------
D|--------13-------------
A|-----15----------------
E|--12-------------------




tabs and chords, guitar tabs, music transcription, music technology, deep learning, music information retrieval, transcribe into tabs & chords, chordify, music renditions, songsterr, reverbnation, tabulature, bollywood chords, ultimate guitar, yousician, guitar lessons, acoustic guitar, electric guitar, guitar tuner, 911 tabs