Guitar Tabs for Arps

ARPEGGIOS:

1) 4 string major                 / 4 string minor


E|-----------12-15-------------------------11-15-------
B|--------13----------------------------13-------------
G|-----12----------------------------12----------------
D|--14----------------------------13-------------------
A|-----------------------------------------------------
E|-----------------------------------------------------

2) 5 string major               /5 string minor 

E|--------------12-15-------------------------11-15----
B|-----------13----------------------------13----------
G|--------12----------------------------12-------------
D|-----14----------------------------13----------------
A|--15----------------------------15-------------------
E|-----------------------------------------------------

3) 6 string major              /6 string minor 

E|-----------------12-15-------------------------11-15----
B|--------------13----------------------------13----------
G|-----------12----------------------------12-------------
D|--------14----------------------------13----------------
A|-----15----------------------------15-------------------
E|--12----------------------------12----------------------





tabs and chords, guitar tabs, music transcription, music technology, deep learning, music information retrieval, transcribe into tabs & chords, chordify, music renditions, songsterr, reverbnation, tabulature, bollywood chords, ultimate guitar, yousician, guitar lessons, acoustic guitar, electric guitar, guitar tuner, 911 tabs