Guitar Tabs for Arps

ARPS:

1) MAJOR


E|-----------12-15-12-------------
B|--------13----------13----------
G|-----12----------------12-------
D|--14----------------------14----
A|--------------------------------
E|--------------------------------

2) MINOR

E|-----------11-15-11-------------
B|--------13----------13----------
G|-----12----------------12-------
D|--13----------------------13----
A|--------------------------------
E|--------------------------------




tabs and chords, guitar tabs, music transcription, music technology, deep learning, music information retrieval, transcribe into tabs & chords, chordify, music renditions, songsterr, reverbnation, tabulature, bollywood chords, ultimate guitar, yousician, guitar lessons, acoustic guitar, electric guitar, guitar tuner, 911 tabs