Guitar Tabs for A Haiku, Acoustic Guitar

(/) Slide Up  (\) Slide Down  (h) Hammer On  (p) Pull Off  (b) Bend (r) Release (v) Vibrato (x) Muted

Tabs for Song : 
BPM : 200

VERSE 1
i wish that i could be like the heroes in the... 
E|--------------------------------------------------
B|--------------------------------------------------
G|--------------------------------------------------
D|--9--9--9--9--7--7--7--7--9--9--9--9--7--7--7--7--
A|--11-11-11-11-9--9--9--9--11-11-11-11-9--9--9--9--
E|--0--0--0--0--0--0--0--0--0--0--0--0--0--0--0--0--
bible stories that my mom used to feed me
E|--------------------------------------------------
B|--------------------------------------------------
G|--------------------------------------------------
D|--6--6--6--6--------------6--6--6--6--7--7--7--7--
A|--7--7--7--7--7--7--7--7--7--7--7--7--6--6--6--6--
E|--5--5--5--5--4--4--4--4--5--5--5--5--7--7--7--7--
Repeat above until chorus


I wish I didn't have to live with myself all the time
(two measures of 7/8, then the next staff is 4/4 again)
E|--------------------------------------------
B|--------------------------------------------
G|--------------------------------------------
D|--6--6--6--2--2--2--2--6--6--6--7--7--7--7--
A|--7--7--7--4--4--4--4--7--7--7--6--6--6--6--
E|--5--5--5--2--2--2--2--5--5--5--7--7--7--7--

E|--------------------------------------------------
B|--------------------------------------------------
G|--------------------------------------------------
D|--9--9--9--9--7--7--7--7--9--9--9--9--7--7--7--7--
A|--11-11-11-11-9--9--9--9--11-11-11-11-9--9--9--9--
E|--0--0--0--0--0--0--0--0--0--0--0--0--0--0--0--0--
REPEAT TWICE^^^

post chorus instrumental build

E|-----x8----x8----x8-------------------------
B|--------------------------------------------
G|--------------------------------------------
D|--9-----11----2-----------------------------
A|--11----12----4-----------------------------
E|--0-----0-----2-----------------------------

VERSE 2 is the same as VERSE 1
as is Chorus 2, the length is lomger however


After the japanese bus recording 
Drinking pbr all alone in my car
the streetlight flashes on
drinking pbr outside your apartment
the streetlight flashes off
E|--0--0--0--0--0--0--0--0--------------------------
B|--0--0--0--0--0--0--0--0--------------------------
G|--1--1--1--1--1--1--1--1--------4-----------4-----
D|--2--2--2--2--2--2--2--2-----6-----6-----6-----6--
A|--2--2--2--2--0--0--0--0--0-----------------------
E|--0--0--0--0--2--2--2--2--------------------------

BIG FINISH
this part is 5/8, 7/8, then one more 5/8
123,12
123,1212
123,12 
is usually how i count it, and instead of playing on every beat 
I usually just play each chord once and dead stroke the others 
bass and acou.guitar are locked in for this. im sorry
E|--------------------------------------------------------------
B|--------------------------------------------------------------
G|--------------------------------------------------2--------4--
D|--2--2--2-----4--4-----7--7--7-----4--4--4--4--------4--------
A|--2--2--2-----4--4-----7--7--7-----4--4--4--4--4--------6-----
E|--0--0--0-----2--2-----5--5--5-----2--2--2--2-----------------
play this figure until the end of the song





Use manual mode to free up cursor. Paste any tab in acousterr tab maker and we'll play it !!!
tabs and chords, guitar tabs, music transcription, music technology, deep learning, music information retrieval, transcribe into tabs & chords, chordify, music renditions, songsterr, reverbnation, tabulature, bollywood chords, ultimate guitar, yousician, guitar lessons, acoustic guitar, electric guitar, guitar tuner, 911 tabs