Guitar Tabs for Acoustic Song

(/) Slide Up  (\) Slide Down  (h) Hammer On  (p) Pull Off  (b) Bend (r) Release (v) Vibrato (x) Muted

Tabs & Chords
BPM : 117.0
Check Track 2 for Chord Positions 

    Am                   G                    Am                                              G  
E|--------0--12-------------------------------------------0-----------------------0--------------
B|-----------------15----------------12-------13-------------------------------------------------
G|--------------------------0-----------12----------12----------------------------------------0--
D|-----------------------0--------12-------------------------------------------------------------
A|--0-----------------------------------------------------------15----12----12-15-------15-------
E|-----------------------------------------------------------------------------------------------

                      Am                   C              G              Dm                   
E|--------------0-----0--------------0-----0--------0-----------------------------------------
B|--0--------------------12-------------------------------0-----------------------------------
G|--------12-------------------12-------------12----------------------------------------------
D|-----12----------------------------------------------------12----12-------12-15----15----15-
A|-----------------------------------------------------------------------12-------------------
E|--------------------------------------------------------------------------------------------

       Am                                        G                    Am                      
E|--------0-----20----------------0-----------------------19-------------0--------0-----------
B|-----------------------------------------15----------0--------------12----------------------
G|--------------------------------------------------0-----------12----------12----------------
D|-----------------------------------------------0--------------------------------------------
A|-----15-------------12----12-15-------15-------------------------------------15----12----12-
E|-----------------------------------------------------------3--------------------------12----

                               G                 Am                                           G  
E|--------0-----0-----17-15----------------12----------------------12----------12----------------
B|-----------------------------15----12-13-------12----13----12-------13----12-------12-13----12-
G|-----------------------------------------------------------------------------------------------
D|-----------------------------------------------------------------------------------------------
A|--15-------------------------------------------------------------------------------------------
E|-----------------------------------------------------------------------------------------------

                      Am                C                                      G              
E|--15----------0-----------12----12----12----------12-------0--------0-----------------------
B|--------------------12-------------------15-13-15----------------------12----------0--------
G|-----------------14----------------------------------0--------12-------------12-------------
D|--------12----------------------------------------------------------------------12----------
A|--------------------------------------------------------15-------------------------------12-
E|--------------------------------------------------------------------------------------------

          Dm          Am       C                 G              F              Em             Am 
E|-----0--------------0-----------0--------------------0-----------------------------------------
B|-----------------------------------15-13-12-------------0--------------------------------------
G|-----------------------12----------------------12-------------------------------0--------------
D|--12----15----12-------------12-------------------12-------------------------------------------
A|-----------------------------------------------------------------------12----------------------
E|--------------------------------------------------------------1--8--13-------12-------12----12-

                            G           Am                                        G           
E|-----------12----12-------------------0--------0--------------------------0-----------------
B|-----13-------------15----12-12----------------------------------------------------------0--
G|--------------------------------12-------12-------12-------------------------------0--------
D|--------------------------------------------------------------------------------0-----------
A|--------------------------------------------------------15-0-----12-15----------------------
E|--------------------------------------------------------------12----------------------------

       Am                               C                          G           Dm          Am 
E|--0--------------0--------0--------------------0--------------------12-13----12-------------
B|-----------------------------12-13-15----------------13----15----15----------------13----13-
G|-----------------------------------------0--------12----------------------------------------
D|--------------------------------------------------------------------------------------------
A|-----0-----12-15-------15-------------------15----------------------------------------------
E|--------------------------------------8-----------------------------------------------------

          C     G              F                                   G                          
E|--------------------------------------------------------------------------------------------
B|--15----15----12----13-12----12----------------------------12----------------------------12-
G|-----------------------------------------------------------------12----12----------12-------
D|-----------------------------------------15----15-------------------12-------12-------------
A|-----------------------------------12-15----------15-12-------------------------------------
E|--------------------------------13----------------------------------------------------------

       Am                   G  A     G           A     G                             Am       
E|-----12-0--------------------0-----------------12----------15----------------12-------------
B|-----------------------------------------12----------15----------15----13----------12-------
G|--------------------0-----------------12-------------------------------------------------12-
D|-----------------------------------12-------------------------------------------------------
A|--------------15----------12----------------------------------------------------------------
E|--------------------------------------------------------------------------------------------

             G                                            F                       G           
E|--------------------------------------------------------------------------------------------
B|-----------------0-----0--------------0-----------------12----------------------------------
G|-----12-------0-----------0--------0--------12----12----------------------------0-----------
D|-----------0--------12----------0--------12-------------------------------------------------
A|-----------------------------------------------------------12----12-15----12----------------
E|--------------------------------------------------------------------------------------3--3--

       Am    G                 Am                               G                 Dm          
E|-----------------------------------12-------------0-----------------------------------------
B|-----------------13----12----13----------------------------------0--------------------------
G|--------------0-----------------------------------------------0-----------------------------
D|-----------0--------------------------------------------------------12-------12-15-12----15-
A|-----0--------------------------------------12----------15----------------12----------------
E|-----------------------------------------12-------------------------------------------------

             Am                         G                    F           Am             G        
E|-----------0--------------0--------------------------------------0-----0-----------------------
B|--------------------------------12----------------0--------------------------0--------------0--
G|--------------------------------------12-------12----------12-------------------------0--------
D|-----15-------------------------------------12-------15----------------------------------------
A|-----------------15-12-------15-------------------------------------------------15-------------
E|-----------------------------------------------------------------------------------------------

                   F              Am                            G              Am             
E|--------------------------------------------------0-----12----15----15-------12----------0--
B|--------0-----------------------------0--------------------------------15-13----------------
G|-----------------12-------0-----------------------------------------------------------------
D|--12-------15-------------------------------------------------------------------------------
A|--------------------12-------------12-------15----------------------------------12----------
E|--------------------------------12-------------------------------------------------12-------

                            G                          Am                                  F  
E|--------0-----0-----------------------------------------------------------0-----------------
B|--------------------------------------12----------------------------0-----------------------
G|-----------------------------12-------------0--0--------------------------------12----------
D|--------------------------12----12----------------------------------------------------------
A|-----15-------------15----------------------------------12----15----------------------------
E|-----------------------------------------------------12----------------------------8-----13-

Guitar Tabs for Acoustic Song






    Am                   G                    Am                                              G  
E|--0--------------------3--------------------0-----------------------------------------------3--
B|--1--------------------3--------------------1-----------------------------------------------3--
G|--2--------------------4--------------------2-----------------------------------------------4--
D|--2--------------------5--------------------2-----------------------------------------------5--
A|--0--------------------5--------------------0-----------------------------------------------5--
E|-----------------------3--------------------------------------------------------------------3--

                      Am                   C              G              Dm                   
E|--------------------0--------------------0--------------3--------------1--------------------
B|--------------------1--------------------1--------------3--------------3--------------------
G|--------------------2--------------------0--------------4--------------2--------------------
D|--------------------2--------------------2--------------5--------------0--------------------
A|--------------------0--------------------3--------------5-----------------------------------
E|--------------------------------------------------------3-----------------------------------

       Am                                        G                    Am                      
E|-----0-----------------------------------------3--------------------0-----------------------
B|-----1-----------------------------------------3--------------------1-----------------------
G|-----2-----------------------------------------4--------------------2-----------------------
D|-----2-----------------------------------------5--------------------2-----------------------
A|-----0-----------------------------------------5--------------------0-----------------------
E|-----------------------------------------------3--------------------------------------------

                               G                 Am                                           G  
E|-----------------------------3-----------------0--------------------------------------------3--
B|-----------------------------3-----------------1--------------------------------------------3--
G|-----------------------------4-----------------2--------------------------------------------4--
D|-----------------------------5-----------------2--------------------------------------------5--
A|-----------------------------5-----------------0--------------------------------------------5--
E|-----------------------------3--------------------------------------------------------------3--

                      Am                C                                      G              
E|--------------------0-----------------0--------------------------------------3--------------
B|--------------------1-----------------1--------------------------------------3--------------
G|--------------------2-----------------0--------------------------------------4--------------
D|--------------------2-----------------2--------------------------------------5--------------
A|--------------------0-----------------3--------------------------------------5--------------
E|-----------------------------------------------------------------------------3--------------

          Dm          Am       C                 G              F              Em             Am 
E|--------1-----------0--------0-----------------3--------------1--------------0--------------0--
B|--------3-----------1--------1-----------------3--------------1--------------0--------------1--
G|--------2-----------2--------0-----------------4--------------2--------------0--------------2--
D|--------0-----------2--------2-----------------5--------------3--------------2--------------2--
A|--------------------0--------3-----------------5--------------3--------------2--------------0--
E|-----------------------------------------------3--------------1--------------0-----------------

                            G           Am                                        G           
E|--------------------------3-----------0-----------------------------------------3-----------
B|--------------------------3-----------1-----------------------------------------3-----------
G|--------------------------4-----------2-----------------------------------------4-----------
D|--------------------------5-----------2-----------------------------------------5-----------
A|--------------------------5-----------0-----------------------------------------5-----------
E|--------------------------3-----------------------------------------------------3-----------

       Am                               C                          G           Dm          Am 
E|-----0--------------------------------0--------------------------3-----------1-----------0--
B|-----1--------------------------------1--------------------------3-----------3-----------1--
G|-----2--------------------------------0--------------------------4-----------2-----------2--
D|-----2--------------------------------2--------------------------5-----------0-----------2--
A|-----0--------------------------------3--------------------------5-----------------------0--
E|-----------------------------------------------------------------3--------------------------

          C     G              F                                   G                          
E|--------0-----3--------------1-----------------------------------3--------------------------
B|--------1-----3--------------1-----------------------------------3--------------------------
G|--------0-----4--------------2-----------------------------------4--------------------------
D|--------2-----5--------------3-----------------------------------5--------------------------
A|--------3-----5--------------3-----------------------------------5--------------------------
E|--------------3--------------1-----------------------------------3--------------------------

       Am                   G  A     G           A     G                             Am       
E|-----0--------------------3--0-----3-----------0-----3-----------------------------0--------
B|-----1--------------------3--2-----3-----------2-----3-----------------------------1--------
G|-----2--------------------4--2-----4-----------2-----4-----------------------------2--------
D|-----2--------------------5--2-----5-----------2-----5-----------------------------2--------
A|-----0--------------------5--0-----5-----------0-----5-----------------------------0--------
E|--------------------------3--------3-----------------3--------------------------------------

             G                                            F                       G           
E|-----------3--------------------------------------------1-----------------------3-----------
B|-----------3--------------------------------------------1-----------------------3-----------
G|-----------4--------------------------------------------2-----------------------4-----------
D|-----------5--------------------------------------------3-----------------------5-----------
A|-----------5--------------------------------------------3-----------------------5-----------
E|-----------3--------------------------------------------1-----------------------3-----------

       Am    G                 Am                               G                 Dm          
E|-----0-----3-----------------0--------------------------------3-----------------1-----------
B|-----1-----3-----------------1--------------------------------3-----------------3-----------
G|-----2-----4-----------------2--------------------------------4-----------------2-----------
D|-----2-----5-----------------2--------------------------------5-----------------0-----------
A|-----0-----5-----------------0--------------------------------5-----------------------------
E|-----------3--------------------------------------------------3-----------------------------

             Am                         G                    F           Am             G        
E|-----------0--------------------------3--------------------1-----------0--------------3--------
B|-----------1--------------------------3--------------------1-----------1--------------3--------
G|-----------2--------------------------4--------------------2-----------2--------------4--------
D|-----------2--------------------------5--------------------3-----------2--------------5--------
A|-----------0--------------------------5--------------------3-----------0--------------5--------
E|--------------------------------------3--------------------1--------------------------3--------

                   F              Am                            G              Am             
E|-----------------1--------------0-----------------------------3--------------0--------------
B|-----------------1--------------1-----------------------------3--------------1--------------
G|-----------------2--------------2-----------------------------4--------------2--------------
D|-----------------3--------------2-----------------------------5--------------2--------------
A|-----------------3--------------0-----------------------------5--------------0--------------
E|-----------------1--------------------------------------------3-----------------------------

                            G                          Am                                  F  
E|--------------------------3--------------------------0-----------------------------------1--
B|--------------------------3--------------------------1-----------------------------------1--
G|--------------------------4--------------------------2-----------------------------------2--
D|--------------------------5--------------------------2-----------------------------------3--
A|--------------------------5--------------------------0-----------------------------------3--
E|--------------------------3--------------------------------------------------------------1--

tabs and chords, guitar tabs, music transcription, music technology, deep learning, music information retrieval, transcribe into tabs & chords, chordify, music renditions, songsterr, reverbnation, tabulature, bollywood chords, ultimate guitar, yousician, guitar lessons, acoustic guitar, electric guitar, guitar tuner, 911 tabs