Guitar Tabs for A Haiku, Guitars

(/) Slide Up  (\) Slide Down  (h) Hammer On  (p) Pull Off  (b) Bend (r) Release (v) Vibrato (x) Muted


Eb standard tuning 
Tabs for Song : 
BPM : 200

Verses Guitar 1 
E|-------------------------------------------------------------------------------------------------------------v---------------------------------------------
B|-----------------------------------------------------------------------------------------------------------------------------------------------------------
G|-----------------------------------------------------------------------------------------------------------------------------------------------------------
D|--------9--------------7-----------9-----------6--9-----6-----------------------6--------------7-----------------------------------------------------------
A|-----11----11-------------9-----11----11----7-----------7-----------7-----------7--------------6-----------------------------------------------------------
E|--0-----------------0--------0-----------9--------------5-----------4-----------5--------------7-----------------------------------------------------------

Guitar 2 verses
E|-----------------------------------------------------------------------------------------------------
B|--------------------------------------------------------------9--------------9-----9-----------10----
G|-----------------------------------------------------------------9--------9-----------9-----8-----8--
D|--9--9--9--9--7--7--7--7--9--9--9--9-----------------------7---------6/7--------7--------9-----------
A|--11-11-11-11-9--9--9--9--11-11-11-11----------------------------------------------------------------
E|--0--0--0--0--0--0--0--0--0--0--0--0-----------------------------------------------------------------

Guitars chorus: I wish i didn't have to live with myself all the time (7/8, 7/8, 4/4, 4/4)
E|-----------------------------------------------------------------------------------------------2x-
B|--------------------------------------------------------------------------------------------------
G|--------------------------------------------------------------------------------------------------
D|--6--6--6--2--2--2--2--6--6--6--7--7--7--7-----9--9--9--9--7--7--7--7--9--9--9--9--------6--9-----
A|--7--7--7--4--4--4--4--7--7--7--6--6--6--6-----11-11-11-11-9--9--9--9--11-11-11-11----7-----------
E|--5--5--5--2--2--2--2--5--5--5--7--7--7--7-----0--0--0--0--0--0--0--0--0--0--0--0--9--------------
between chorus 1 and verse 2
guitar 1
E|-----12----12----12----12-x2----14--14----14----14-12-11----11----11----11----
B|--12----12----12----12-------------12----12----------12----12----12----12-
G|--------------------------------------------------------------------------
D|--------------------------------------------------------------------------
A|--------------------------------------------------------------------------
E|--------------------------------------------------------------------------
guitar 2
E|-----------------------x--x--x--x--
B|-----------------------x--x--x--x--
G|--------------------6--x--x--x--x--
D|--7-----9-----2-----7--x--x--x--x--
A|--9-----11----4-----7--x--x--x--x--
E|--0-----0-----2-----5--x--x--x--x--
Verse 2 and chorus 2 are the same parts




OUTRO 4/4 Section, Guitar 1 play twice then rest an equal number of measures 

E|--0--x4-0--x4-0--x8
B|--0-----0-----0--
G|--1-----1-----2--
D|--2-----2-----4--
A|--2-----0-----0--
E|--0-----2--------
Guitar 1
E|-----0-----0-----0-----0-----0-----0-----0-----0-----0-----0-----0-----0-----0-----0-----0-----0--
B|--2-----2-----4-----4-----7-----7-----4-----4-----2-----2-----4-----4-----7-----7-----12----12----
G|--------------------------------------------------------------------------------------------------
D|--------------------------------------------------------------------------------------------------
A|--------------------------------------------------------------------------------------------------
E|--------------------------------------------------------------------------------------------------
Guitar 2
E|-----0-----0-----0-----0-----0-----0-----0-----0-----0-----0-----0-----0-----0-----0-----0-----0--
B|--14----14----16----16----19----19----16----16----14----14----16----16----19----19----12----12----
G|--------------------------------------------------------------------------------------------------
D|--------------------------------------------------------------------------------------------------
A|--------------------------------------------------------------------------------------------------
E|--------------------------------------------------------------------------------------------------
Instrumental Ending (8 repetitions of 5/8, 7/8, 5/8)
Guitar 2, play 8 times
E|-----------------------------------------------
B|-----------------------------------------------
G|-----------------------------------2--------4--
D|--2-----4--------7--------4-----------4--------
A|--2-----4--------7--------4-----4--------6-----
E|--0-----2--------5--------2--------------------
Guitar 1 (feedback your amp in a cool way for the duration)
E|-------
B|--
G|--
D|--
A|--
E|--

Use manual mode to free up cursor. Paste any tab in acousterr tab maker and we'll play it !!!
tabs and chords, guitar tabs, music transcription, music technology, deep learning, music information retrieval, transcribe into tabs & chords, chordify, music renditions, songsterr, reverbnation, tabulature, bollywood chords, ultimate guitar, yousician, guitar lessons, acoustic guitar, electric guitar, guitar tuner, 911 tabs