Bass Tabs for A Haiku, Bass

(/) Slide Up  (\) Slide Down  (h) Hammer On  (p) Pull Off  (b) Bend (r) Release (v) Vibrato (x) Muted

Tabs for Song : 
BPM : 200

verse 1
G|--------------------------------------------------x--------------------------------------------------
D|--------------------------------------------------x--------------------------------------------------
A|--------------------------------------11-11-11-9--x--------------------------------------------------
E|--0--0--0--0--0--0--0--0--0--0--0--0--------------x--5--5--5--5--4--4--4--4--5--5--5--5--7--7--7--7--

chorus ( i wish i didn't have to) 
G|--------------------------------------------------------------------------------------------
D|--------------------------------------------------------------------------------------6--9--
A|-----------------------------------------------------------------------------------7--------
E|--5--5--5--2--2--2--2--5--5--5--7--7--7--7--0--0--0--0--0--0--0--0--0--0--0--0--9-----------
outro (drinking pbr all alone) theres no bass part here so if you wanna improv go for it
G|--------------------------------------------------x8----
D|--------------------------------------------------------
A|--------------------------0--0--0--0--0--0--0--0--------
E|--0--0--0--0--2--2--2--2--------------------------------
outro (5/8, 7/8, 5/8 section)
G|-------------------------------------------------------
D|-----------------------------------------------------
A|-----------------------------4-----4--2--2--2--4--4--
E|--0--0--0--2--2--5--5--5--2-----2--------------------



Use manual mode to free up cursor. Paste any tab in acousterr tab maker and we'll play it !!!
G|-----
D|-----
A|--
E|--
tabs and chords, guitar tabs, music transcription, music technology, deep learning, music information retrieval, transcribe into tabs & chords, chordify, music renditions, songsterr, reverbnation, tabulature, bollywood chords, ultimate guitar, yousician, guitar lessons, acoustic guitar, electric guitar, guitar tuner, 911 tabs