A Comme Amour - Richard Clayderman - Guitar Tabs

????????????
    
                                                                                                                                                                                                                                                                                                                                                                                                                                                                                                                                                                                                 
E|-------------------------|
B|-------------------------|
G|--------0-----0-----0----|
D|-------------------------|
A|-----2-----2-----2-----2-|
E|--0----------------------|

    
                                                                                                                                                                                                                                                                                                                                                                                                                                                                                                                                                                                                                                                                                                                                                                                                                                                                                                                                                                                                                                                                                                                                                                                              
E|-------------------------|--------------------------------------|
B|-------------------------|0-----------3--3--1--1--0--0--1--0----|
G|--------0-----0----------|------0--------0-----------0--------0-|
D|-------------------------|--------------------------------------|
A|-----2-----2-----2--2----|---2-----2-----------2-----------2----|
E|--0----------------------|0-------------------------------------|

    
    B7                                                                                                                                                                                                                                                                                                                                                                                                                                                                                                                                                                                             B7                                                                                                                                                                                                                                                                                                                                                                                                                                                                                                                                                                                             
E|-------------------------|--------------------------------------|
B|-------------------------|--------------------------------------|
G|--2----------------------|2-----------5--5--4--4--2--2--4--2----|
D|--------4-----4----------|------4--------4-----------4--------4-|
A|-----2-----2-----2--2----|---2-----2-----------2-----------2----|
E|--2----------------------|2-------------------------------------|

    
    Em                                                                                                                                                                                                                                                                                                                                                                                                                                                                                                                                                                                             Em                                                                                                                                                                                                                                                                                                                                                                                                                                                                                                                                                                                             
E|-------------------------|--------------------------------------|
B|-------------------------|3-----------6--6--5--5--3--3--5--3----|
G|--0-----0-----0----------|------4--------4-----------4--------4-|
D|--------------------2----|---2-----2-----------2-----------2----|
A|-----2-----2-----2-----2-|--------------------------------------|
E|--0----------------------|4-------------------------------------|

    
                                                                            Am                                                                                                                                                                                                                                                                                                                                                                                                                                                                                                                                                                                             Am                                                                                                                                                                                                                                                                                                                                                                                                                                                                                                                     
E|--------------0----------------|-----------------------------|
B|--1-----1-----------1--3--1----|0-----0-----4--------3-----1-|
G|-----------------------------2-|-----------------------------|
D|-----2-----2-----2-------------|---1-----1-----1--4----------|
A|--0----------------------------|-----------------------------|
E|-------------------------------|2----------------------------|

    
                                                                                                                                                                                                                                                                                                                                                                                                                                                                                                                                                                                                                                                                                                                                                                                                                                                                                                                                                                                                                                                                                                                                                                                              
E|----------------------------------|--------------------------------------|
B|--1-----0-----0-------------------|5-----------8--8--6--6--5--5--6--5----|
G|-----------2--------1-------------|------5--------5-----------5--------5-|
D|-----0-----------0-----2--3---2/(7)--------------------------------------|
A|----------------------------------|---7-----7-----------7-----------7----|
E|--0-------------------------------|5-------------------------------------|

    
                                                                                                                                                                                                                                                                                                                                                                                                                                                                                                                                                                                                                                                                                                                                                                                                                                                                                                                                                                                                                                                                                                                                                                                              
E|-------------------------|--------------------------------------|
B|--3-----3-----3----------|3-----------6--6--5--5--3--3--5--3----|
G|-------------------------|------4--------4-----------4--------4-|
D|-----2-----2-----2--2----|---2-----2-----------2-----------2----|
A|--2----------------------|--------------------------------------|
E|-------------------------|4-------------------------------------|

    
    Am                                                                                                                                                                                                                                                                                                                                                                                                                                                                                                                                                                                             Am                                                                                                                                                                                                                                                                                                                                                                                                                                                                                                                                                                                             
E|-------------------------|3-----------6--6--5--5--------5-------|
B|--1-----1-----1----------|------2-----------------8--8-----8--5-|
G|-----------------2--3--2-|---------------6-----------6----------|
D|-----2-----2-------------|---2-----2----------------------------|
A|--0----------------------|0--------------------7-----------7----|
E|-------------------------|--------------------------------------|

    
    Dm                                                                                                                                                                                                                                                                                                                                                                                                                                                                                                                                                                                             Dm                                                                                                                                                                                                                                                                                                                                                                                                                                                                                                                                                                                             
E|--1-----1-----1-----1--3--1----|0--------------------3-----1-|
B|-----------------------------3-|------1-----1----------------|
G|-----2-----2-----2-------------|------------------2----------|
D|--0----------------------------|---2-----2-----2-------------|
A|-------------------------------|0----------------------------|
E|-------------------------------|-----------------------------|

    
                                                                                                                                  E                                                                                                                                                                                                                                                                                                                                                                                                                                                                                                                                                                                             E                                                                                                                                                                                                                                                                                                                                                                                                                                                               
E|--1-----0-----0--------------0-|8--------7--8--10-8--7--5-|
B|-----------3--------------0----|--------------------------|
G|-----------------------1-------|------5-------------------|
D|-----0--------------2----------|--------------------------|
A|-----------------2-------------|---7-----------0----------|
E|--0----------------------------|5-----------------------0-|

    
                                                                                                                                                                                                                                                                                                                                                                                                                                                                                                                                                                                                                                                                                                                                                                                                                                                                                                                                                                                                                                                                                                                                                                                              
E|--8--------7--8--10-8--7--5-|7--------4--5--8--7--5--4-|
B|-----5----------------------|--------------------------|
G|--------5-------------------|------4-------------------|
D|----------------------------|--------------------------|
A|--0--------------0----------|---7-----------0----------|
E|--------------------------0-|4-----------------------0-|

    
                                                                                                                                                                                                                                                                                                                                                                                                                                                                                                                                                                                                                                                                                                                                                                                                                                                                                                                                                                                                                                                                                                                                                                                              
E|--7--------4--5--8--7--5--4-|5--7--8--10------------|
B|-----5----------------------|-----------------------|
G|--------4-------------------|------0----------------|
D|----------------------------|-----------------------|
A|-----------------0----------|0----------------------|
E|--0-----------------------0-|-----------------------|

    
                                                                                                                                                                                                                                                                                                                                                                                                                                                                                                                                                                                                                                                                                                                                                                                                                                                                                                                                                                                                                                                                                                                                                                                              
E|--12-------8--10-13-12-10-8-|12-------8--10-13-12-10-8-|
B|-----8-----8----------------|---8-----8----------------|
G|-----9--9--9----------------|---9--9--9----------------|
D|----------------------------|--------------------------|
A|----------------------------|--------------------------|
E|--8--------------8--------8-|8--------------8--------8-|

    
                                                                                                                                                                                                                                                                                                                                                                                                                                                                                                                                                                                                                                                                                                                                                                                                                                                                                                                                                                                                                                                                                                                                                                                              
E|--10-------7--8--12-10-8--7-|10-------7--8--12-10-8--7-|
B|----------------------------|--------------------------|
G|-----9----------------------|---9--9-------------------|
D|-----9--9-------------------|---9--9-------------------|
A|----------------------------|--------------------------|
E|--7--------------7--------7-|7--------------7--------7-|

    
                                                                                                                                                                                                                                                                                                                                                                                                                                                                                                                                                                                                 
E|--8--------------10-8--5-|
B|--------------5----------|
G|--------5----------------|
D|-------------------------|
A|-----7-----7--------0----|
E|--5--------------0-----0-|

    
                                                                                                                                                                                                                                                                                                                                                                                                                                                                                                                                                                                                                                                                                                                                                                                                                                                                                                                                                                                                                                                                                                                                                                                              
E|--7----------------------|-----------------------------------|
B|--------------7----------|1-----0-----0--------0-----------0-|
G|--------8-----------8----|---------2--------1--------1-------|
D|-----------7-------------|---0-----------0--------------2----|
A|-----9-----------9-------|------------------------2----------|
E|--7--------------------7-|0----------------------------------|

    
                                                                                                                                                                                                                                                                                                                                                                                                                                                                                                                                                                                                                                                                                                                                                                                                                                                                                                                                                                                                                                                                                                                                                                                              
E|-----------0-----------4-----4-----7-----4-----7-|--------------------------------------|
B|-----0-----------5--------------5-----------5----|5-----------8--8--6--6--5--5--6--5----|
G|--------1-----------4-----4-----------4----------|------5--------5-----------5--------5-|
D|--2-----------6----------------------------------|--------------------------------------|
A|-------------------------------------------------|---7-----7-----------7-----------7----|
E|-------------------------------------------------|5-------------------------------------|

    
                                                                                                                                                                                                                                                                                                                                                                                                                                                                                                                                                                                                                                                                                                                                                                                                                                                                                                                                                                                                                                                                                                                                                                                              
E|-------------------------------------|---------------------1-----------1-----------1-|
B|--3--------------------------------0-|------0--3-----0--3--------0--3--------0--3----|
G|--------4--------------1--------1----|---1--------1-----------1-----------1----------|
D|-----2-----2-----0--3-----0--3-------|3----------------------------------------------|
A|--------------2----------------------|-----------------------------------------------|
E|--4----------------------------------|-----------------------------------------------|

    
    E7sus2                                                                                                                                                                                                                                                                                                                                                                                                                                                                                                                                                                                             E7sus2                                                                                                                                                                                                                                                                                                                                                                                                                                                                                                                                                                                             
E|----------------------------------------|-----------------------------------|
B|--3-----------6--6--5--5--3--3--5--3----|1-----1----------------------------|
G|--------4--------4-----------4--------4-|2-----2--------------------------2-|
D|-----2-----2-----------2-----------2----|2--2--2--2-----------2--------2----|
A|----------------------------------------|0--------------0--3-----0--3-------|
E|--0-------------------------------------|------------0----------------------|

    
                                                                                                                                                                                                                                                                                                                                                                                                                                                                                                                                                                                                                                                                                                                                                                                                                                                                                                                                                                                                                                                                                                                                                                                              
E|-----------------------0-----------0-----------0-|3-----------6--6--5--5--------5-----0-|
B|-----------1--------1-----------1-----------1----|2-----2-----------------8--8-----8----|
G|--------2--------2-----------2-----------2-------|2--------------6-----------6----------|
D|-----2--------2-----------2-----------2----------|---2-----2----------------------------|
A|--3----------------------------------------------|0--------------------7-----------7----|
E|-------------------------------------------------|--------------------------------------|

    
    Dm                                                                                                                                                                                                                                                                                                                                                                                                                                                                                                                                                                                             Dm                                                                                                                                                                                                                                                                                                                                                                                                                                                                                                                                                                                             
E|--1-----1-----1-----1--3--1----|0--------------------3-----1-|
B|--3-----3-----3-----3--------3-|1-----1-----1----------------|
G|--2--2--2--2--2--2--2----------|2-----2-----2-----2----------|
D|--0----------------------------|---2--2--2--2--2-------------|
A|-------------------------------|0----------------------------|
E|-------------------------------|-----------------------------|

    
                                                                                                                                  E                                                                                                                                                                                                                                                                                                                                                                                                                                                                                                                                                                                             E                                                                                                                                                                                                                                                                                                                                                                                                                                                               
E|--1-----0-----0-----------0--7-|8--------7--8--10-8--7--5-|
B|-----------3-----------0-------|---5----------------------|
G|--1--1--------------1----------|------5-------------------|
D|-----0-----------2-------------|--------------------------|
A|-------------------------------|0-------------------------|
E|--0----------------------------|--------------------------|

    
                                                                                                                                                                                                                                                                                                                                                                                                                                                                                                                                                                                                                                                                                                                                                                                                                                                                                                                                                                                                                                                                                                                                                                                              
E|--8--------7--8--10-8--7--5-|7--------4--5--8--7--5--4-|
B|-----5----------------------|---5----------------------|
G|--------5-------------------|------4-------------------|
D|----------------------------|--------------------------|
A|--0-------------------------|--------------------------|
E|----------------------------|4-------------------------|

    
                                                                                                                                                                                                                                                                                                                                                                                                                                                                                                                                                                                                                                                                                                                                                                                                                                                                                                                                                                                                                                                                                                                                                                                              
E|--7--------4--5--8--7--5--4-|5----------------------|
B|-----5----------------------|-----------------------|
G|--------4-------------------|5----------------------|
D|----------------------------|-----------------------|
A|----------------------------|0----------------------|
E|--0-----------------------0-|-----------------------|

About Richard Clayderman - Richard Clayderman (French pronunciation: ​) born Philippe Pagès, born Philippe Pès . He has released numerous albums including compositions of Paul de Senneville and Olivier Toussaint . Clayderman learned piano from his father, an accordion teacher. At the age of twelve, he was accepted into the Conservatoire de Paris . Financial difficulties prevented a promising career as a classical pianist . In order to earn a living, he found work as a bank clerk and as accompanist to contemporary bands . Richard Clayderman's music is influenced by genre(s) - new age music easy listening.

tabs and chords, guitar tabs, music transcription, music technology, deep learning, music information retrieval, transcribe into tabs & chords, chordify, music renditions, songsterr, reverbnation, tabulature, bollywood chords, ultimate guitar, yousician, guitar lessons, acoustic guitar, electric guitar, guitar tuner, 911 tabs