Guitar Tabs for Ballade Pour Adeline - Richard Clayderman

(/) Slide Up  (\) Slide Down  (h) Hammer On  (p) Pull Off  (b) Bend (r) Release (v) Vibrato (x) Muted

Tabs & Chords

Check Track 2 for Chord Positions 

    C                                                                                         
E|--------------------------------------------------------0-----------0-----------0-----------
B|--------------------------------------------------------------------------------------------
G|-----0-----7-----0-----7-----0-----7-----0-----7-----0-----0-----0-----0-----0-----0-----0--
D|--------10----------10----------10----------10----------------------------------------------
A|--------------------------------------------------------------------------------------------
E|--8-----------8-----------8-----------8-----------8-----------8-----------8-----------8-----

                                                    Gm    Dm                F                 
E|--0-----0-----------0-----------0-----------0-----------------------------------------------
B|--------------------------------------------------------------------------------------------
G|-----0--------0-----------0-----------0-----------0--10-10----------10----------10-10-10-10-
D|--------------------------------------------------------------7-----------7-----------------
A|--------------------------------------------------------------------------------------------
E|--------------------------------------------------------------------------------------------

             G                                               C                                
E|-----------------------------------------------------------0-----------0-----------0--------
B|-----------8--8-----------0-----------0-----------8-----10----------------------------------
G|--10-10-10-------------------------------------------------------0-----------0-----------0--
D|--------------------0-----------0-----------0-----------------------------------------------
A|--------------------------------------------------------------------------------------------
E|--------------------------------------------------------------------------------------------

                                     Em                Gm Dm                   F              
E|-----0-----0-----------0-----------0--0--0--0--0--0--0--------------------------------------
B|--------------------------------------------------------------------------------------------
G|-----------------0-----------0--------------------------10-10----------10----------10-10-10-
D|-----------------------------------------------------------------7-----------7--------------
A|--------------------------------------------------------------------------------------------
E|--------------------------------------------------------------------------------------------

                G                                                  C                          
E|-----------------------------------------------------------------0-----------0-----------0--
B|--------------8--8-----------0-----------0-----------8--------10----------------------------
G|--10-10-10-10----------------------------------------------------------0-----------0--------
D|-----------------------0-----------0-----------0-----------0--------------------------------
A|--------------------------------------------------------------------------------------------
E|--------------------------------------------------------------------------------------------

                   A                 C           E     Am          F     G           C        
E|-----------------------12----10----8-----------7-----------------------------------0--------
B|-----------------------------------------------------10----8-----10----8--------------------
G|-----------------------------------------------------------------------------10----------7--
D|--------------------------------------------------------------------------------------------
A|-----------------0-----------------------7--------------------------------------------------
E|-----8-----7--------------------------------------------------------------------------------

             B     A           Am          Em          F              G  
E|-----------------0-----------------------------------------------------
B|-----------0-----------------------0-----------------------------------
G|-----------------------7-----------------------0-----------0--------0--
D|-----10----------------------10----------7-----------7-----------------
A|-----------------------------------------------------------------8-----
E|-----------------------------------------------------------------------

Guitar Tabs for Ballade Pour Adeline - Richard Clayderman






    C                                                                                         
E|--0-----------------------------------------------------------------------------------------
B|--1-----------------------------------------------------------------------------------------
G|--0-----------------------------------------------------------------------------------------
D|--2-----------------------------------------------------------------------------------------
A|--3-----------------------------------------------------------------------------------------
E|--------------------------------------------------------------------------------------------

                                                    Gm    Dm                F                 
E|--------------------------------------------------3-----1-----------------1-----------------
B|--------------------------------------------------3-----3-----------------1-----------------
G|--------------------------------------------------3-----2-----------------2-----------------
D|--------------------------------------------------5-----0-----------------3-----------------
A|--------------------------------------------------5-----------------------3-----------------
E|--------------------------------------------------3-----------------------1-----------------

             G                                               C                                
E|-----------3-----------------------------------------------0--------------------------------
B|-----------3-----------------------------------------------1--------------------------------
G|-----------4-----------------------------------------------0--------------------------------
D|-----------5-----------------------------------------------2--------------------------------
A|-----------5-----------------------------------------------3--------------------------------
E|-----------3--------------------------------------------------------------------------------

                                     Em                Gm Dm                   F              
E|-----------------------------------0-----------------3--1--------------------1--------------
B|-----------------------------------0-----------------3--3--------------------1--------------
G|-----------------------------------0-----------------3--2--------------------2--------------
D|-----------------------------------2-----------------5--0--------------------3--------------
A|-----------------------------------2-----------------5-----------------------3--------------
E|-----------------------------------0-----------------3-----------------------1--------------

                G                                                  C                          
E|--------------3--------------------------------------------------0--------------------------
B|--------------3--------------------------------------------------1--------------------------
G|--------------4--------------------------------------------------0--------------------------
D|--------------5--------------------------------------------------2--------------------------
A|--------------5--------------------------------------------------3--------------------------
E|--------------3-----------------------------------------------------------------------------

                   A                 C           E     Am          F     G           C        
E|-----------------0-----------------0-----------0-----0-----------1-----3-----------0--------
B|-----------------2-----------------1-----------0-----1-----------1-----3-----------1--------
G|-----------------2-----------------0-----------1-----2-----------2-----4-----------0--------
D|-----------------2-----------------2-----------2-----2-----------3-----5-----------2--------
A|-----------------0-----------------3-----------2-----0-----------3-----5-----------3--------
E|-----------------------------------------------0-----------------1-----3--------------------

             B     A           Am          Em          F              G  
E|-----------2-----0-----------0-----------0-----------1--------------3--
B|-----------4-----2-----------1-----------0-----------1--------------3--
G|-----------4-----2-----------2-----------0-----------2--------------4--
D|-----------4-----2-----------2-----------2-----------3--------------5--
A|-----------2-----0-----------0-----------2-----------3--------------5--
E|-----------------------------------------0-----------1--------------3--

tabs and chords, guitar tabs, music transcription, music technology, deep learning, music information retrieval, transcribe into tabs & chords, chordify, music renditions, songsterr, reverbnation, tabulature, bollywood chords, ultimate guitar, yousician, guitar lessons, acoustic guitar, electric guitar, guitar tuner, 911 tabs